Song name
# A B C D E F G H I J K L M N O P Q R S T U V W X Y Z

Megadeth - New World Order tab

Standard Tuning

INTRO
|----------------------------------------------------------------|
|----------------------------------------------------------------|
|----------------------------------------------------------------|
|--2--------2-------0----------------------------7---------------|
|--2---0h2-----0h2-------------------------------5--------5--4---|
|--0---------------------3-----0--2--3--2--0--------------3--2---|

VERSE
Aint got the first guitar, sorry!

Guitar 2
|----------------------------------------------------------------|
|----------------------------------------------------------------|
|--9-------------------------------------------------------------|
|--9-------------------------------------------------------------|
|--7-------------------------------------------------------------|
|--0--just let ring at the end of each phrase--------------------|

And then...
Guitar 1
|----------------------------------------------------------------|
|----------------------------------------------------------------|
|--10-9-10-12-10-9-10--------------------------------------------|
|----------------------------------------------------------------|
|----------------------------------------------------------------|
|----------------------------------------------------------------|

Guitar 1
|------------10---12-------------10-8-7--------------10---12-----|
|----8-12-------8----10---8-12----------10----8-12------8----10--|
|--9------9-------------9------9------------9------9-------------|
|----------------------------------------------------------------|
|----------------------------------------------------------------|
|----------------------------------------------------------------|

|--15-15b-15-14--then the same stuff and then--15-15b-15/17-17b--|
|----------------------------------------------------------------|
|----------------------------------------------------------------|
|----------------------------------------------------------------|
|----------------------------------------------------------------|
|----------------------------------------------------------------|

Guitar 2
|----------------------------------------------------------------|
|----------------------------------------------------------------|
|----------------------------------------------------------------|
|------2---------------2--------------2--------------------------|
|----2-------5---2---2------2---0---2------5---2--5--7-5-4-------|
|--0-----0-3---2---0----0-3---2---0----0-3---2----3--5-3-2-------|
INTRO
 
VERSE

INTRO

Solo
Guitar 2
|----------------------------------------------------------------|
|----------------------------------------------------------------|
|----------------------------------------------------------------|
|---------4-----2--------------7-6-5-----------------------------|
|--4--2h4---2h4----------------5-4-3-----------------------------|
|--2--------------5--2-4-5-4-2-----------------------------------|

Guitar 1... (:S)(Not right)
|--14---------14-------------------------------------------------|
|-----14-17b-----17-14----------------------------------12-13p12-|
|-----------------------b16-14-16b20-14h16-14--11-13-14----------|
|----------------------------------------------------------------|
|----------------------------------------------------------------|
|----------------------------------------------------------------|

|----------------------------------------------------------------|
|-----13p12-------12-------------------12------------------------|
|--14-------14-13----14-13-11-14-13-11----14-13-11---------11----|
|--------------------------------------------------14-13-11------|
|----------------------------------------------------------------|
|----------------------------------------------------------------|

|----------------------------------------------------------------|
|----------------------------------------------------------------|
|----------------------------------------------------------------|
|--11-14-13-11---------------------------------------------------|
|--------------14-13---------------------------------------------|
|----------------------------------------------------------------|

|----------------------------------------------------------------|
|----------------------------------------------------------------|
|----------------------------------------------------------------|
|---------6-----4--------------9-8-7--------6----4---------------|
|--6--4h6---4h6----------------7-6-5-6--4h6---4h6----------------|
|--4--------------7--4-6-7-6-4-------4-------------7--4-6-7------|

|----------------------------------------------------------------|
|----------------------------------------------------------------|
|----------------------------------------------------------------|
|--------------2-------------------------------------------------|
|--------------2-------------------------------------------------|
|6-4-5-4-3-2-1-0-------------------------------------------------|

Verse

Bridge
|----------------------------------------------------------------|
|----------------------------------------------------------------|
|--10-9-10-12-10-9-10--------------------------------------------|
|----------------------4-3-4-------------------------------------|
|----------------------------5-4---------------------------------|
|--------------------------------5-3-----------------------------|

|----------------------------------------------------------------|
|----------------------------------------------------------------|
|----------------------------------------------------------------|
|----------------------------------------------------------------|
|--2h4-4-4-4-7---------------------------------------------------|
|--0h2-2-2-2-5-6-6-6-6-6-6-5-5-6-6-6-6-7-7-8-8-------------------|

|----------------------------------------------------------------|
|----------------------------------------------------------------|
|----------------------------------------------------------------|
|--11-11-10-10-9--8-8-7-7-6--2h4p2p0-----------------------------|
|--9--9--8--8--7--6-6-5-5-4----------4p3p2p0-2h3p2p0-2p0---------|
|--------------------------------------------------------2p0-----|

SOLO
Guitar 2
|----------------------------------------------------------------|
|----------------------------------------------------------------|
|-----------------------------4----------------------------------|
|-----------------------------2----------------------------------|
|--4--2-5--5/4-4-4-7--3/4-4-4---5/4-4-4-5--5/4-4-4-4-------------|
|--2--0-3--3/2-2-2-5--5/2-2-2---3/2-2-2-3--3/2-2-2-2-------------|

|----------------------------------------------------------------|
|----------------------------------------------------------------|
|----------------------------------------------------------------|
|----------------------------------------------------------------|
|--5/4-4-4-7--5/4-4-4-6--5/4-4-4-5-5-/4-4-4-4--------------------|
|--3/2-2-2-5--3/2-2-2-4--3/2-2-2-3-3-/2-2-2-2--------------------|

Tap to rate this tab
# A B C D E F G H I J K L M N O P Q R S T U V W X Y Z