Song name
# A B C D E F G H I J K L M N O P Q R S T U V W X Y Z

Megadeth - My Sweet Lord tab

my sweet lord



Megadeth



album: unplugged, live in buenos aires



TRANSCRIBED BY RUDY GUZMAN



guzman_84@hotmail.com



intro

e:-2--2-2-2--2-2-2------------------|
B:-2--2-2-2--2-2-2--4--4-4-4--4-4-4-|
G:-2--2-2-2--2-2-2--4--4-4-4--4-4-4-|
D:-4--4-4-4--4-4-4--4--4-4-4--4-4-4-|
A:-4--4-4-4--4-4-4--2--2-2-2--2-2-2-|
E:-2--2-2-2--2-2-2------------------|



          2 times

e:-14/16--14-12--14-12--------12-------|-14/16--14-12--16-13----------12-------------------|
B:---------------------14--14----14-12-|---------------------15-12-15-----14--14-14-12-----|
G:-------------------------------------|----------------------------------------------13-11|
D:-------------------------------------|---------------------------------------------------|
A:-------------------------------------|---------------------------------------------------|
E:-------------------------------------|---------------------------------------------------|



verse

4 times

e:-2--2-2-2--2-2-2------------------|
B:-2--2-2-2--2-2-2--4--4-4-4--4-4-4-|
G:-2--2-2-2--2-2-2--4--4-4-4--4-4-4-|
D:-4--4-4-4--4-4-4--4--4-4-4--4-4-4-|
A:-4--4-4-4--4-4-4--2--2-2-2--2-2-2-|
E:-2--2-2-2--2-2-2------------------|



2 times

e:-0-0--0-0-0-----------------|
B:-0-0--0-0-0--6-6--6-6-6-6-6-|
G:-1-1--1-1-1--6-6--6-6-6-6-6-|
D:-2-2--2-2-2--6-6--6-6-6-6-6-|
A:-2-2--2-2-2--4-4--4-4-4-4-4-|
E:-0-0--0-0-0-----------------|



e:-0-0--0-0-0--4-4--7-7-7-7-|
B:-0-0--0-0-0--3-3--6-6-6-6-|
G:-1-1--1-1-1--4-4--7-7-7-7-|
D:-2-2--2-2-2--0-0--0-0-0-0-|
A:-2-2--2-2-2---------------|
E:-0-0--0-0-0---------------|



4 times

e:-2--2-2-2--2-2-2------------------|
B:-2--2-2-2--2-2-2--4--4-4-4--4-4-4-|
G:-2--2-2-2--2-2-2--4--4-4-4--4-4-4-|
D:-4--4-4-4--4-4-4--4--4-4-4--4-4-4-|
A:-4--4-4-4--4-4-4--2--2-2-2--2-2-2-|
E:-2--2-2-2--2-2-2------------------|



e:-0-0--0-0-0--0-0-0-0-0-0-0-0-0-0-0-0-0-0-0-|
B:-0-0--0-0-0--0-0-0-0-0-0-0-0-0-0-0-0-0-0-0-|
G:-1-1--1-1-1--1-1-1-1-1-1-1-1-1-1-1-1-1-1-1-|
D:-2-2--2-2-2--2-2-2-2-2-2-2-2-2-2-2-2-2-2-2-|
A:-2-2--2-2-2--2-2-2-2-2-2-2-2-2-2-2-2-2-2-2-|
E:-0-0--0-0-0--0-0-0-0-0-0-0-0-0-0-0-0-0-0-0-|



          

:---------------------------------|
:-6-6-6-6-6-6-6-6-6-6-6-6-6-6-6-6-|
:-6-6-6-6-6-6-6-6-6-6-6-6-6-6-6-6-|
:-6-6-6-6-6-6-6-6-6-6-6-6-6-6-6-6-|
:-4-4-4-4-4-4-4-4-4-4-4-4-4-4-4-4-|
:---------------------------------|



e:-2-2--2-2-2--6-6--9-9-9-9-9-|
B:-2-2--2-2-2--5-5--8-8-8-8-8-|
G:-2-2--2-2-2--6-6--9-9-9-9-9-|
D:-4-4--4-4-4--0-0--0-0-0-0-0-|
A:-4-4--4-4-4-----------------|
E:-2-2--2-2-2-----------------|



4 times

e:-4-4--4-4-4-----------------|
B:-4-4--4-4-4--6-6--6-6-6-6-6-|
G:-4-4--4-4-4--6-6--6-6-6-6-6-|
D:-6-6--6-6-6--6-6--6-6-6-6-6-|
A:-6-6--6-6-6--4-4--4-4-4-4-4-|
E:-4-4--4-4-4-----------------|



          2 times

e:-16/18--16-14--16-14--------14-------|-16/18--16-14--18-15----------15-------------------|
B:---------------------16--16----16-14-|---------------------17-14-17-----16--16-16-14-----|
G:-------------------------------------|----------------------------------------------15-13|
D:-------------------------------------|---------------------------------------------------|
A:-------------------------------------|---------------------------------------------------|
E:-------------------------------------|---------------------------------------------------|

Tap to rate this tab
 
# A B C D E F G H I J K L M N O P Q R S T U V W X Y Z