Song name
# A B C D E F G H I J K L M N O P Q R S T U V W X Y Z

Megadeth - Public Enemy No1 tab

e|---------------------------------------------------------------------------|
B|---------------------------------------------------------------------------|
G|----------------------7-------------------------7--------------------------|
D|------3--------2------7----------3-------2------7---------3------2-----7---|
A|----3--------2--------5-------3--------2--------5-------3------2-------7---|
E|--1-------0----------------1---------0----------------1------0---------5---|



e|----------------------------------------------------------------------------|
B|----------------------------------------------------------------------------|
G|------------------7-------7----5---7----------------------------------------|
D|-----3-------2----7-------7----5---7----2----------2-3----------3-4---------|
A|---3-------2------5---------------------0--000-000-0-0--000-000-0-0-000-000-|
E|-1-------0------------------------------------------------------------------|


                 At this point you repeat the intro and then it goes to this
e|---------------------------------------------------------------------------|
B|---------------------------------------------------------------------------|
G|-------------5/------------------------------------------------------------|
D|-4-5-------------------2-2-2-2-3-3-3-3-5-5-5-5-----------------------------|
A|-0-0-000-000-----------0-0-0-0-0-0-0-0-0-0-0-0-----------------------------|
E|---------------------------------------------------------------------------|
                         p.m^^^^^^^^^^^^^^^^^^^^^^
Tap to rate this tab
# A B C D E F G H I J K L M N O P Q R S T U V W X Y Z