Song name
# A B C D E F G H I J K L M N O P Q R S T U V W X Y Z

Megadeth - Public Enemy No 1 tab

---------------------------------------------------------------------------
		            PUBLIC ENEMY NO. 1 - Megadeth
---------------------------------------------------------------------------

Tuning:Standard(EADGBE)

EMAIL: philip-fille@hotmail.com


INTRO (Both Guitars)

e|-------------------------------------|     e|-----------|
B|-------------------------------------|     B|-----------|
G|--------------2-----------------2----|     G|-7-5-7-5-7-|
D|-----3-----3--0--------3-----3--0----|     D|-7-5-7-5-7-|
A|---3-----3-----------3-----3---------|     A|-----------|
E|-1-----0-----------1-----0-----------| x2  E|-----------|


Guitar 1

e|--------------------------------------------------------|
B|--------------------------------------------------------|
G|-----------------------------------------------------5b-|
D|-2---------2---3---------3---4---------4---5------------|
A|-0-000-000-0-0-0-000-000-0-0-0-000-000-0-0-0-000-000----|
E|--------------------------------------------------------|

e|-----------------------------------------------------------|
B|-----------------------------------------------------------|
G|-----------------------------------------------7-5-7-5-7---|
D|-2---------2---3---------3---4---------4---5---7-5-7-5-7---|
A|-0-000-000-0-0-0-000-000-0-0-0-000-000-0-0-0-0-------------| Repeat through solo
E|-----------------------------------------------------------|

Dave Mustaine Guitar Solo (Guitar 2)

e|------------------------------------------------------------------------|
B|------------------------------------------------------------------------|
G|-7b8r7-5---7b8r7-5---7b8r7-5---7b8r7-5---7b8r7-5------5-----------------|
D|---------7---------7---------7---------7----------7p5---7-5-7-5---5-----|
A|----------------------------------------------------------------7---7-5-|
E|------------------------------------------------------------------------|

e|----------------------------------------------------------------------------|
B|--------------------------------20b22~~---20--17h20p17---17h22p17--17h20p17-|
G|------------------------------------------------------20---------19---------|
D|----------------------------------------------------------------------------|
A|-7-5\3---3------5p3h5\------------------------------------------------------|
E|-------5--5p3h5-------------------------------------------------------------|

e|--------------------------------------------------------------|
B|---17h22p17--20h17--20h17---22p17--20p17--22p17---20-20b22~~~-|
G|-19--------19-----19-----19------19-----20-----19-------------|
D|--------------------------------------------------------------|
A|--------------------------------------------------------------|
E|--------------------------------------------------------------|
The solo may not be 100% correct, so please email me if you think something sounds wrong

VERSE RIFF 1 (both guitars)

e|---------------------------------------------------------|
B|---------------------------------------------------------|
G|---------------------------------------------------------|
D|-2---------2---3---------3---4---------4---5-------------|
A|-0-000-000-0-0-0-000-000-0-0-0-000-000-0-0-0-000-000-000-|
E|---------------------------------------------------------|

e|-----------------------------------------------------------|
B|-----------------------------------------------------------|
G|-----------------------------------------------7-5-7-5-7---|
D|-2---------2---3---------3---4---------4---5---7-5-7-5-7---|
A|-0-000-000-0-0-0-000-000-0-0-0-000-000-0-0-0-0-------------|


Pre-chorus

   Ro-ses on your Grave...
e|----------------------------------------------|      e|-----------|
B|----------------------------------------------|      B|-----------|
G|----------------7---5-----------------7---5---|      G|-7-5-7-5-7-|
D|-3------3-------7---5---3-------3-----7---5---|      D|-7-5-7-5-7-|
A|-3------3-------5-------3-------3-----5-------|      A|-----------|
E|-1------0---------------1-------0-------------| x2   E|-----------|


CHORUS

   |PM----------------------| +   |PM----------------------------|
e|---------------------------------------------------------------|
B|---------------------------------------------------------------|
G|---------------------------5b----------------------------7-5---|
D|-2-------3-------4-------5-5b--2-------3-------4-------5-7-5---|
A|-0-0-0-0-0-0-0-0-0-0-0-0-0-----0-0-0-0-0-0-0-0-0-0-0-0-0-------|
E|---------------------------------------------------------------|

   |PM---------------------| +  |PM------------------------------|
e|---------------------------------------------------------------|
B|---------------------------------------------------------------|
G|---------------------------5b---------------------7-5-7-5-7----|
D|-2-------3-------4-------5-5b-2-------3-------4---7-5-7-5-7----|
A|-0-0-0-0-0-0-0-0-0-0-0-0-0----0-0-0-0-0-0-0-0-0-0--------------|
E|---------------------------------------------------------------| x2



GUITAR SOLO 2 - CHRIS BRODERICK
I don't really know the whole solo and i dont think many of you can play it either so i 
will leave it blank until further notice


VERSE 2(same as verse 1)

CHORUS 2 (same as chorus 1)


GUITAR SOLO 3 (Dave Mustaine)


e|-20----20b22~---20--19--17----------15------------------------------------------------------|
B|---------------------------20-19-17----17-16-15----------------------------------17-20-17---|
G|-----------------------------------------------17-14-17b19r17~----17-19b20--20-21--------20-|
D|----------------------------------------------------------------19--------------------------|
A|--------------------------------------------------------------------------------------------|
E|--------------------------------------------------------------------------------------------|

e|-----------------------------------------------------------------------17-|
B|---17h22p17--20h17--20h17---22p17--17h20p17-17-17h22p17-17h20p17-17-20----|
G|-19--------19-----19-----19------19---------------------------------------|
D|--------------------------------------------------------------------------|
A|--------------------------------------------------------------------------|
E|--------------------------------------------------------------------------|

e|-19-19-19-19-19-19-19-19-19--17-19-17--------------------------------------------------------|
B|-------------------------------------20-20-20-20-20-20-20-20-20~--20p19--------20p19---------|
G|-----------------------------------------------------------------------19-20b22-----19-20b22-|
D|---------------------------------------------------------------------------------------------|
A|---------------------------------------------------------------------------------------------|
E|---------------------------------------------------------------------------------------------|

e|------------------19----------14-12---14b15br14-----|
B|-20p19-22b24r22-20--19~~---12------12----------12...| *some random pentatonic
G|----------------------------------------------------| jamming that i don't feel
D|----------------------------------------------------| like tabbing right now...*
E|----------------------------------------------------| I'll update this later.


"BRIDGE" (3:34) play the same riff as in the chorus


CHORUS 3 (same as chorus 1 & 2)


OUTRO

e|----------------------------------------------------------------|
B|----------------------------------------------------------------|
G|----------------------7-5-7-5-7-----------------------7-5-7-5-7-|
D|--2-------3-------4---7-5-7-5-7---2-------3-------4---7-5-7-5-7-|
A|--0-0-0-0-0-0-0-0-0-0-----------0-0-0-0-0-0-0-0-0-0-0-----------|
E|----------------------------------------------------------------| x2





************************************

| /   slide up
| \   slide down
| h   hammer-on
| p   pull-off
| ~   vibrato
| +   harmonic
| PM  palm mute
| b   Bend
| pb  Pre-bend
| br  Bend release
| pbr Pre-bend release

************************************
Tap to rate this tab
# A B C D E F G H I J K L M N O P Q R S T U V W X Y Z