Song name
# A B C D E F G H I J K L M N O P Q R S T U V W X Y Z

Megadeth - Millennium Of The Blind tab

This is the amazing solo that MegaDave does on Th1rt3en. Is it correct,so take your axe
and play!!! If you want more tabs from Th1rt3en contact me at legendssj2@hotmail.com!
HAVE FUN!


e|------------------------------------|
B|------------------------------------|
G|---------4-5-7~----5-4-------4------|
D|-4/7~------------------5~------5-7~-|
A|------------------------------------|
E|------------------------------------|

e|--------------------------------|
B|-10-----------------------------|
G|----9-10-7-9----7---------------|
D|-------------10---8-7~----(7)\--|
A|--------------------------------|
E|--------------------------------|

e|---------------------------------------------------8--------|
B|----------------------------8-----8-10--11b13-{11}---10-11~-|
G|-4-5-7--5-7-9--7-9-11--9-11----11---------------------------|
D|------------------------------------------------------------|
A|------------------------------------------------------------|
E|------------------------------------------------------------|

e|---------------------------------------|
B|-10h11p10----10h11h13p11p10----10h11~--|
G|----------12----------------12---------|
D|---------------------------------------|
A|---------------------------------------|
E|---------------------------------------|

e|-10-13p11p10----13-10-11-10h11----------|
B|-------------13----------------13-11p10-|
G|----------------------------------------|
D|----------------------------------------|
A|----------------------------------------|
E|----------------------------------------|

e|------------------------------------------------|
B|-13p11----11-10----10---------------------------|
G|-------12-------12----12-11-10----10h12~--12----|
D|-------------------------------12------------12-|
A|------------------------------------------------|
E|------------------------------------------------|

e|----------------------------------|
B|------------------------13-10-11~-|
G|---------------------11-----------|
D|--13---12--13-10-/13--------------|
A|----------------------------------|
E|----------------------------------|

e|-10-13p11p10----10h11p10-----------------------------------|
B|-------------13----------13-10h13p11----13p11p10----10h11~-|
G|-------------------------------------12----------12--------|
D|-----------------------------------------------------------|
A|-----------------------------------------------------------|
E|-----------------------------------------------------------|

e|------------------|
B|-10~--------(10~)-|
G|------------------|
D|------------------|
A|------------------|
E|------------------|


From now,broderick and dave play another two little solos. I'll tab them sooner :D
Tap to rate this tab
# A B C D E F G H I J K L M N O P Q R S T U V W X Y Z