Song name
# A B C D E F G H I J K L M N O P Q R S T U V W X Y Z

Megadeth - 13 Acoustic tab

----------------------------------------------------------------------------
			                            Megadeth - 13 (TH1RT3EN)
Posted by: henboyrules 
----------------------------------------------------------------------------
If you have any questions or corrections, email me at: henboyrules@aol.com or 
simply message me here.

Keep Rockin,
      Danny


Tuning:Standard (EADGBe)

|--------0--------------0--------------0----------------0------------------|
|------5---5---5------5---5---5------5---5---5--------5---5---5------------|
|----4-------4------4-------4------4-------4--------4-------4--------------|
|--2-----------------------------------------------------------------------|
|-----------------3--------------4----------------3------------------------|
|--------------------------------------------------------------------------|
Tap to rate this tab
 
# A B C D E F G H I J K L M N O P Q R S T U V W X Y Z