Song name
# A B C D E F G H I J K L M N O P Q R S T U V W X Y Z

Megadeth - Guns Drugs Money tab

Title: Guns, Drugs & Money
Artist: Megadeth
Album: Th1rt3en
Tempo = 135


Legend
L - tied note
x - dead note
h - hammer on/pull off
b - bend
s - slide
~ - vibrato
g - ghost note
> - accentuated note
t - trill
M - palm mute
. - staccato
P - popping (bass)
S - slapping (bass)
+ - tapping
W - wide vibrato
< - fade in
w - whammy bar
= - tremolo picking
v - brush up
^ - brush down
V - pick stroke up
n - pick stroke down

Broderick
------------------14---|--19~---------------------17-15----19-17-15---------|
---------------15------|--------------------------------17----------17-15---|
------------16---------|----------------------------------------------------|
-----------------------|----------------------------------------------------|
-----------------------|----------------------------------------------------|
-----------------------|----------------------------------------------------|


-----------------------------19-------17-------15---|
--17b---------17~---------17----17-15----15-13------|
----------------------------------------------------|
----------------------------------------------------|
----------------------------------------------------|
----------------------------------------------------|


--14----------15-14-------------------------------------------------------------|
-----------------------12----------------------12b------------------------------|
--------------------------------------------------------------------------------|
--------------------------------------------------------------------------------|
--------------------------------------------------------------------------------|
--------------------------------------------------------------------------------|


------------12-14---|
---12-14-15---------|
--------------------|
--------------------|
--------------------|
--------------------|


--15-14-15-14-------------------------------------------------------------------|
--------------15-14-12-15-14-12-------------------------------------------------|
-----------------------------------------14-16-18-16-18-16-14-------------------|
--------------------------------14-16-18----------------------18-16-14-14-16-18-|
--------------------------------------------------------------------------------|
--------------------------------------------------------------------------------|


--------------------|-------|----|----|----|----||
--------------------|-------|----|----|----|----||
14-16-18------------|-------|----|----|----|----||
---------18-16-14---|-------|----|----|----|----||
--------------------|-------|----|----|----|----||
--------------------|--14~--|----|----|----|----||

Mustaine
----------------------------------------------------|
----------------------------------------------------|
--6--6--6--6--5--5--6--6--6--6--5--5--5--3----------|
-----------------------------------------------3----|
----------------------------------------------------|
----------------------------------------------------|


----------------------------------------------------|
----------------------------------------------------|
----------------------------------------------------|
--4-----------4--5--4-----4--5--4~------------------|
-----------------------7----------------------------|
----------------------------------------------------|


----------------------------------------------------|
--------------7-----5-------------------------------|
--5b-------------5-----5-----6--5-----5-------------|
-----------------------------------8-----8-----4----|
--------------------------------------------8-------|
----------------------------------------------------|


--------8--7--------------8--7----------------------|----||
--------------10-7--------------10-7--7~------------|----||
----------------------------------------------------|----||
----------------------------------------------------|----||
----------------------------------------------------|----||
----------------------------------------------------|----||
Tap to rate this tab
# A B C D E F G H I J K L M N O P Q R S T U V W X Y Z