Song name
# A B C D E F G H I J K L M N O P Q R S T U V W X Y Z

Megadeth - Shadow Of Deth tab

This is my own interpretation of the song:
Shadow Of Deth
By: Megadeth
Tuning: Standard (ebgdae)

Intro Riff
e|---------| (16x)
b|---------|
g|---------|
d|---------|
a|-5-2-3-4-|
e|-5-2-3-4-|
   . . . .

Riff 2
e|-------------------------------------------------------------|
b|-------------------------------------------------------------|
g|-------------------------------------------------------------|
d|-7~~~------5~~~------7~~~------5~~~-3~~~-7~~~------5~~~------|
a|-5~~~-7~~~-3~~~-5~~~-5~~~-7~~~-3~~~-1~~~-5~~~-7~~~-3~~~-5~~~-|
e|------5~~~------3~~~------5~~~----------------5~~~------3~~~-|
 |
e|---------------------|
b|---------------------|
g|---------------------|
d|-3~~~----------------|
a|-1~~~-3~~~-5~~~-7~~~-|
e|------1~~~-3~~~-5~~~-|

Solo
e|------------------------------------------------------------------------|
b|------------------------------------------------------------8-----------|
g|---7-10-9-7-9-10~---7-10-9-7-10-9-7---7-10-9-7-9-10~---7-10---10-9-10-7-|
d|-7----------------7-----------------7----------------7------------------|
a|------------------------------------------------------------------------|
e|------------------------------------------------------------------------|

e|------------------------------------------------------------------------------|
b|------------------------------------------------------------8-----------------|
g|---7-10-9-7-9-10~---7-10-9-7-10-9-7---7-10-9-7-9-10~---7-10---10-9-7-10-9-7---|
d|-7----------------7-----------------7----------------7----------------------7-|
a|------------------------------------------------------------------------------|
e|------------------------------------------------------------------------------|


e|--------------------------------------------------------------------------------|
b|------------------------------------------------------------------10------------|
g|---9-12-11-9-11-12~---9-12-11-9-12-11-9---9-12-11-9-11-12~---9-12----12-11-12-9-|
d|-9------------------9-------------------9------------------9--------------------|
a|--------------------------------------------------------------------------------|
e|--------------------------------------------------------------------------------|


e|--------------------------------------------------------------------------------------|
b|------------------------------------------------------------------10------------------|
g|---9-12-11-9-11-12~---9-12-11-9-12-11-9---9-12-11-9-11-12~---9-12---12-11-9-12-11-9---|
d|-9------------------9-------------------9------------------9------------------------9-|
a|--------------------------------------------------------------------------------------|
e|--------------------------------------------------------------------------------------|

e|------------------------------------------------------------------------------15-------------|
b|----15-18-17-15-17-18~----15-18-17-15-18-17-15----15-18-18-15-17-18~----15-18----18-17-18-15-|
g|-14--------------------14----------------------14--------------------14----------------------|
d|---------------------------------------------------------------------------------------------|
a|---------------------------------------------------------------------------------------------|
e|---------------------------------------------------------------------------------------------|

e|---------------------------------------------------------------------|
b|----15-18-17-15-17-18~----15-18-17-15-18-17-15----15-18-18-15-17-18~-|
g|-14--------------------14----------------------14--------------------|
d|---------------------------------------------------------------------|
a|---------------------------------------------------------------------|
e|---------------------------------------------------------------------|

e|----------15-----------------------------|
b|----15-18----18-17-15-18-17-15----15~~~-\|
g|-14----------------------------14--------|
d|-----------------------------------------|
a|-----------------------------------------|
e|-----------------------------------------|

e|---------| (12x)
b|---------|
g|---------|
d|---------|
a|-5-2-3-4-|
e|-5-2-3-4-|
   . . . .
Tap to rate this tab
 
# A B C D E F G H I J K L M N O P Q R S T U V W X Y Z