Song name
# A B C D E F G H I J K L M N O P Q R S T U V W X Y Z

Megadeth - Wake Up Dead tab

Wake Up Dead   Megadeth                                 Tabbed by Mr.KennJ.Hicks

Part I
e|-----------------------------------------------------------------------------|
B|---------------------------10---------13----------7----------9----------10---|
G|---------------------------9----------12----------7----------9----------10---|
D|-----------x3--------------7----------10----------7----------9----------10---|
A|-x5-x4x3-----3-3----------7----------10----------5----------7----------8----|
E|-------------------0-2-0-2----0-2-0-2-----0-2-0-2----0-2-0-2----0-2-0-2------|

Part II
 |          3 Times                 | 4th Time |
e|------------------------------------------------------------|
B|------------------------------------------------------------|
G|------------------------------------------------------------|
D|------5\4--7\6--5\4--4-5---4---------6-7-9------------------|
A|-4-5--5\4--5\4--5\4------7---5-7-----4-5-7------------------|
E|------------------------------------------------------------|

Part III a                                Part III b
 |               4 Times                 |(with part III a another 3 Times)
e|-----------------3------------------------------------------|
B|-----------------3------------------------------------------|
G|-----------------0------------------------------------------|
D|-5-4-3----2-3-2--0--3-2-3-----------------2-0-3-2-0---------|
A|-3-2-1--x-0-1-0-----1-0-1-----------------2-0-3-2-0-5-------|
E|---------------------------0-0-0--0-0-0-------------3-------|

Part IV
|               4 Times          |   3 Times                 | 4th Time
e|------------------------------------------------------------------------|
B|--------------------------------------4------------7-6-4---------6------|
G|--------------------------------------4------------7-6-4---------6------|
D|-2-0-3-2-05-4-2----------------------4------------7-6-4---------6------|
A|-2-0-3-2-0-3-2-0--------2-1-----------2------------5-4-2---------4------|
E|------------------0-2-3-----2----4-2-4---2-3-4-2-4---------4-2-4----4-5-|

Part V
e|-----------------------------------4------------------------|
B|---------6----------8----------9-8-5------------------------|
G|---------6----------8----------9-8-4------------------------|
D|---------6----------8----------9-8-6------------------------|
A|---------4----------6----------7-6-7------------------------|
E|66666-46---66666-46---66666-46------------------------------|

Part VI
e|------------------------------------------------------------------------|
B|------------------------------------------------------------------------|
G|-----------------------------------4-------------------------4---3-4----|
D|-----------------------------------4-6---------------------6-4-6-3-4-6--|
A|-------------------------------------6---------------------6---6-----6--|
E|4444-7444-4444-7444-4444-7444-4444-----4444-7444-4444-7444--------------|

Part VII
 |           3 Times    | 4th Time    (Part VII 3 times whole complete)
e|-----------------------------------------------------------------------|
B|-----------------------------------------------------------------------|
G|-----------------------------------------------------------------------|
D|-----4-2---------------4-2----4-2--------------------------6-----------|
A|--------5-4---------------5-4-----5-4-4-2-----4-2--------5---5--5------|
E|2222--------2222-2222---------------------5-4-----5-4--4-------4-------|

Part VIII
e|------------------------------------------------------------|
B|------------------------------------------------------------|
G|-----2------------5-2-4-------7-6-4------2----------7-9--6--|
D|-4---2-------4----5-2-4---4---5-4-4--4---2-2-3-4----7-9--6--|
A|-4---0-2-3---4----3-0-2---4---5-4-2--4---0-2-3-4----5-7--4--|
E|-2--x--0-1---2--x---------2--x-------2--x--0-1-2--0---------|

Part IX
e|------------------------------------------------------------|
B|------------------------------------------------------------|
G|---------------------------3------------------------------3-|
D|-5-3---2-3---5---2-3---2---1----5-3---2-3---5---2-3---2---3-|
A|-5-3---2-3---5---2-3---2---1----5-3---2-3---5---2-3---2---1-|
E|-----0-----0---0-----0--------------0-----0---0-----0-------|

Sorry No solos. My mp3 player was fried by government spies!!!
Tap to rate this tab
# A B C D E F G H I J K L M N O P Q R S T U V W X Y Z