Song name
# A B C D E F G H I J K L M N O P Q R S T U V W X Y Z

Megadeth - Super Collider tab

Super Collider by Megadeth.

Tuning: Standart
Mail: degot88@gmail.com

\ - slide
p - pull off
t - thrill
^^ ^ - bend
~ - vibrato
... - continue playing note
(7)5 - pull down from 7 to 5
+ - pinch harmonic
() - commentaries



Main riff:

e|---------------------------------------------------------------|
B|---------------------------------------------------------------|
G|---------------5-----------------------------------------------|
D|---5-----3-----5-----5-----------------------------------------|
A|---5-----3-----3-----5-----------------------------------------|
E|---3-----1-----------3-----------------------------------------| 

Riff 2:

e|---------------------------------------------------------------|
B|---------------------------------------------------------------|
G|---3\5---6\5--6\5--6\5--6\5--6\5--3----------------------------|
D|---3\5---6\5--6\5--6\5--6\5--6\5--3--5-------------------------|
A|---1\3---4\3--4\3--4\3--4\3--4\3--1--3-------------------------|
E|-------------------------------------3-------------------------| 

Chorus:

e|---------------------------------------------------------------|
B|---------------------------------------------------------------|
G|------------5--------------------------------------------------|
D|---5-----3--5--------------------------------------------------|
A|---5-----3--3--------------------------------------------------|
E|---3-----1-------(repeat)--------------------------------------|


Intro solo:

e|---------------------------------------------------------------------------------|
B|----------------------------------------------------15----15----15----15----15---|
G|--10^^(hold)-10^^-10^^-10^^-10^^-10^^-10^^-10---14^^--14^^--14^^--14^^--14^^-----|
D|---------------------------------------------------------------------------------|
A|---------------------------------------------------------------------------------|
E|---------------------------------------------------------------------------------| 

e|---------------------------------------------------------------------------------|
B|---------------------------------------------------------------------------------|
G|--10-9------------9t10t9t10t9--9t7t9t7--7t5t7t5--5t4t5t4--4t2t4t2--0-------------|
D|------9---5--5~------------------------------------------------------------------|
A|---------------------------------------------------------------------------------|
E|---------------------------------------------------------------------------------|


Arterchorus solo 1:

e|-------15-14x-14^^~(hold)-------\\15p14p12---------------------------------------|
B|-----------------------------------------15p14p12--------------------------------|
G|--14^^-------------------------------------------12~(hold)-----------------------|
D|---------------------------------------------------------------------------------|
A|---------------------------------------------------------------------------------|
E|---------------------------------------------------------------------------------| 


Arterchorus solo 2:

e|-----------------------------------------------------------------------------------------------|
B|----------------------------------------------------------8----8----8----8----8----------------|
G|--10-10-10...999...777....999....10-10-10....999....--10^^-10^^-10^^-10^^-10^^--(keep pickin)--|
D|-----------------------------------------------------------------------------------------------|
A|-----------------------------------------------------------------------------------------------|
E|-----------------------------------------------------------------------------------------------| 

e|-----13--18p15p13--------18p15p13--------20p18p15--------20p18p15------------------|
B|--15-------------18p15p13--------18p15p13--------20p18p15--------20p18p15----------|
G|-----------------------------------------------------------------------------------|
D|-----------------------------------------------------------------------------------|
A|-----------------------------------------------------------------------------------|
E|-----------------------------------------------------------------------------------| 

e|--18p15p13-18p15p13-18p15p13-18p15p13---20p18p15-20p18p15-20p18p15-20p18p15--------|
B|-----------------------------------------------------------------------------------|
G|-----------------------------------------------------------------------------------|
D|-----------------------------------------------------------------------------------|
A|-----------------------------------------------------------------------------------|
E|-----------------------------------------------------------------------------------| 

e|--18p15p13-20p18p15-18p15p13-20p18p15---20^^-20^^-20^^(keep pickin then slide down)---|
B|--------------------------------------------------------------------------------------|
G|--------------------------------------------------------------------------------------|
D|--------------------------------------------------------------------------------------|
A|--------------------------------------------------------------------------------------|
E|--------------------------------------------------------------------------------------| 


Outro solo:

e|---------------------------------------------------------------------------------|
B|---------------------------------------------------------------------------------|
G|--(7)5^^+5+5+5+5+5+5+-\-15~~-14^-12-14-12^~(hold)--10~--9~-7~-5~-12~(fade)-------|
D|---------------------------------------------------------------------------------|
A|---------------------------------------------------------------------------------|
E|---------------------------------------------------------------------------------|
Tap to rate this tab
# A B C D E F G H I J K L M N O P Q R S T U V W X Y Z