Song name
# A B C D E F G H I J K L M N O P Q R S T U V W X Y Z

Megadeth - Kingmaker tab

-------------------------------------------------------------------------------
                             Kingmaker- Megadeth
-------------------------------------------------------------------------------
Tabbed by: _blackfriday
E-mail:luisanchezjr@hotmail.com email me suggestions or problems! :)

Tuning: D Standard

Intro:
e|---------------------------------------------------------------------------|
B|---------------------------------------------------------------------------|
G|---------------------------------------------------------------------------|
D|-7-9-------7-9-------7-9-10-9--7-10--------------------------10------------|
A|-5-7-------5-7-------5-7-8--7--5-8------------last time do:--8-------------|
E|-----0-0000----0-0000---------------0-0000---------------------------------|
       * ****    * ****               * ****
verse 1:
e|---------------------------------------------------------------------------|
B|---------------------------------------------------------------------------|
G|---------------------------------------------------------------------------|
D|---------------------------------------------------------------------------|
A|-------------------8/7--7--2-----------------------------------------------|
E|-0-0000-00-00-00---6/5--5--0-----------------------------------------------|
   * **** ** ** **
Fill 1:                 Fill 2:
e|-------------------e|------------------------------------------------------|
B|--17b--------------b|--17b-16b-14b--last time end:-13b---------------------|
G|-------------------g|------------------------------------------------------|
D|-------------------d|------------------------------------------------------|
A|-------------------a|------------------------------------------------------|
E|-------------------e|------------------------------------------------------|

Pre-Chorus:
e|---------------------------------------------------------------------------|
B|-------14b---------16b-----------------------------------------------------|
G|-------------------------14b-13b-------------------------------------------|
D|---------------------------------------------------------------------------|
A|---------------------------------------------------------------------------|
E|-0-0000------0-0000--------------------------------------------------------|
   * ****      * ****

Chorus:
e|---------------------------------------------------------------------------|
B|---------------------------------------------------------------------------|
G|---------------------------------------------------------------------------|
D|--9------9-------7-------7-------5-------5---------------------------------|
A|--7-0000-6-0000--5-0000--4-0000--3-0000--2-00003p00000000------------------|
      ****   ****    ****    ****    ****    *****  *******
E|---------------------------------------------------------------------------|

*back to intro

Verse 2:
e|---------------------------------------------------------------------------|
B|---------------------------------------------------------------------------|
G|---------------------------------------------------------------------------|
D|---------------------------------------------------------------------------|
A|-------------------8/7--7--2-----------------------------------------------|
E|-0-0000-00-00-00---6/5--5--0-----------------------------------------------|
   * **** ** ** **

Fill 1:                 Fill 2:
e|-------------------e|------------------------------------------------------|
B|--17b--------------b|--17b-16b-14b--last time end:-13b---------------------|
G|-------------------g|------------------------------------------------------|
D|-------------------d|------------------------------------------------------|
A|-------------------a|------------------------------------------------------|
E|-------------------e|------------------------------------------------------|

Pre-Chorus:
e|---------------------------------------------------------------------------|
B|-------14b---------16b-----------------------------------------------------|
G|-------------------------14b-13b-------------------------------------------|
D|---------------------------------------------------------------------------|
A|---------------------------------------------------------------------------|
E|-0-0000------0-0000--------------------------------------------------------|
   * ****      * ****

*Chorus

Rhythm for Chris' Solo
e|---------------------------------------------------------------------------|
B|---------------------------------------------------------------------------|
G|---------------------------------------------------------------------------|
D|---------------------------------------------------------------------------|
A|--------------------8------------------------------------------------------|
E|-0-00-0000-00-00-00-6------------------------------------------------------|
   * ** **** ** ** **

Rhythm for Dave's Solo (I will tab it soon though ladies and gents! :])
e|---------------------------------------------------------------------------|
B|---------------------------------------------------------------------------|
G|---------------------------------------------------------------------------|
D|--------------------8------------------------------------------------------|
A|-0-00-0000-00-00-00-6------------------------------------------------------|
   * ** **** ** ** **
E|---------------------------------------------------------------------------
|

towards the end of the solo before chorus:
e|---------------------------------------------------------------------------|
B|---------------------------------------------------------------------------|
G|---------------------------------------------------------------------------|
D|---------------------------------------------------------------------------|
A|---------------------------------------------------------------------------|
E|-0-1-3-0-1-3-0-1-3-0-1-3-0-1-3-0-1-3-0-1-3-0-1-3-333333333-111111----------|
   * * * * * * * * * * * * * * * * * * * * * * * * ********* ******

*Chorus (but in case your to lazy to scroll up):

e|---------------------------------------------------------------------------|
B|---------------------------------------------------------------------------|
G|---------------------------------------------------------------------------|
D|--9------9-------7-------7-------5-------5---------------------------------|
A|--7-0000-6-0000--5-0000--4-0000--3-0000--2-00003p00000000------------------|
      ****   ****    ****    ****    ****    *****  *******
E|---------------------------------------------------------------------------|

Ontro:
e|---------------------------------------------------------------------------|
B|---------------------------------------------------------------------------|
G|-------------2----2--------------------------------------------------------|
D|-9--5---5----2----2-----2-------------2------------------------------------|
A|-7--3---3---------------2-------------2------------------------------------|
E|------0----0----0----0-------00-00-00----00-00-00--------------------------|
        *    *    *    *       ** ** **    ** ** **

last time:
e|-----------------------------------------------------------------------------|
B|-----------------------------------------------------------------------------|
G|-------------2----2----------------------------------------------------------|
D|-9--5---5----2----2-----2~~--------------------------------------------------|
A|-7--3---3---------------2~~--------------------------------------------------|
E|------0----0----0----0-------------------------------------------------------|
        *    *    *    *

finito!

************************************
| * Palm mute
| /   slide up
| \   slide down
| h   hammer-on
| p   pull-off
| ~   vibrato
| +   harmonic
| x   Mute note
| b   Bend
| pb  Pre-bend
| br  Bend release
| pbr Pre-bend release
| brb Bend release bend

************************************
Tap to rate this tab
# A B C D E F G H I J K L M N O P Q R S T U V W X Y Z