Song name
# A B C D E F G H I J K L M N O P Q R S T U V W X Y Z

Megadeth - Kingmaker tab

KINGMAKER


INTRO PT1
e|---------|
B|---------|
G|---------|
D|----7-9~~|
A|----5-7~~|
E|---------|

INTRO PT2(x4)   
e|------------------|-----------------|----------------|-----------------|
B|------------------|-----------------|----------------|-----------------|
G|------------------|-----------------|----------------|-----------------|
D|-------------7-9~~|-------------7-9~|~~10--9~~7--10~~|-------------7-9~|
A|-------------5-7~~|-------------5-7~|~~-8--7~~5---8~~|-------------5-7~|
E|--0-0-0-0-0-------|--0-0-0-0-0------|----------------|--0-0-0-0-0------|

INTRO PT3
e|----------------|--------------------|
B|----------------|--------------------|
G|----------------|--------------------|
D|~~10--9~~7--10~~|----------------10--|
A|~~-8--7~~5---8~~|-----------------8--|
E|----------------|-0-0-0-0-0-0-0------|

VERSE - RHYTHM FIGURE 1(x3)
e|-----------------|---------------------|
B|-----------------|---------------------|
G|-----------------|-----2~3~2~----------|
D|-----------------|-----2~3~2~---2~3~2~-|
A|-----------------|-----2~3~2~---2~3~2~-|
E|-0-0-0-0-0-0-0-0-|-0-0-------0--2~3~2~-|

RHYTHM FIGURE 2
e|-----------------|--------------|
B|-----------------|--------------|
G|-----------------|--------------|
D|-----------------|--------------|
A|-----------------|-----------8~-|
E|-0-0-0-0-0-0-0-0-|-0-0-0-0-0-6~-|

RHYTHM FIGURE 3
e|-----------------|-------------------------|
B|-----------------|-------------------------|
G|-----------------|-------------------------|
D|-----------------|-------------------------|
A|-----------------|-------------------------|
E|-0-0-0-0-0-0-0-0-|-3-3-3-3-3-3-1-1-1-1-1-1-|

PRE-CHORUS
e|-------------------------|-------------------------|-------------|-------------|
B|-------------------------|-------------------------|-------------|-------------|
G|-------------------------|-------------------------|-------------|-------------|
D|-------------------------|-------------------------|-------------|-------------|
A|-------------------------|-------------------------|-----------8-|-----------5-|
E|-3-1-0-3-1-0-3-1-0-3-1-0-|-3-1-0-3-1-0-3-1-0-3-1-0-|-0-0-0-0-0-6-|-0-0-0-0-0-5-|

e|-------------------------|-------------------------|
B|-------------------------|-------------------------|
G|-------------------------|-------------------------|
D|-------------------------|-------------------------|
A|-------------------------|-------------------------|
E|-3-1-0-3-1-0-3-1-0-3-1-0-|-3-1-0-3-1-0-3-1-0-3-1-0-|

CHORUS(x3)
e|---------------------|---------------------|---------------------|-------------------------|
B|---------------------|---------------------|---------------------|-------------------------|
G|---------------------|---------------------|---------------------|-------------------------|
D|-9---------8---------|-7---------6---------|-5---------4---------|-------------------------|  then
A|-7---7-7-7-7---7-7-7-|-5---5-5-5-5---5-5-5-|-3---3-3-3-3---3-3-3-|-0-0-0-0-0-0-0-0-0-2-3-5-|
E|---------------------|---------------------|---------------------|-------------------------|

e|---------------------|---------------------|---------------------|-------------------------|
B|---------------------|---------------------|---------------------|-------------------------|
G|---------------------|---------------------|---------------------|-------------------------|
D|-9---------8---------|-7---------6---------|-5---------4---------|--------------------7-9~~|
A|-7---7-7-7-7---7-7-7-|-5---5-5-5-5---5-5-5-|-3---3-3-3-3---3-3-3-|-0-0-0-0-0-0-0-0-0--5-7~~|
E|---------------------|---------------------|---------------------|-------------------------|

GUITAR SOLO 1(BRODERICK)
e|---------|--------|-----------------------------|------------------|----------------------|
B|---------|--------|-----------------------------|-----6-9~6-9~12---|-10(10)~(10)-8~(8)(8)-|
G|-5~~~~~~~|~~~~~~~~|-9~7---7---------------------|---7--------------|----------------------|
D|---------|--------|-----9---8~9~7~8~7----7------|-9----------------|----------------------|
A|---------|--------|-------------------10---10~7-|------------------|----------------------|
E|---------|--------|-----------------------------|------------------|----------------------|

e|---------------|------------------------------|------------|
B|---------------|-----------------------12-15~~|~~(15)------|
G|-9--7~~9~~~(9)-|--13~~~~(13)-14~(14)----------|------------|
D|---------------|------------------------------|------------|
A|---------------|------------------------------|------------|
E|---------------|------------------------------|------------|

GUITAR SOLO 2(BRODERICK)
e|-----------------|------------------|--------------8-------8-13-10----|-------10--------------|
B|-----------------|-9----------------|---10-9-12-10---12-10---------12-|----12-----------------|
G|-9--(9)-10-9-----|---10-9---------9-|-9-------------------------------|-13-------13-12-11-10--|
D|-------------12--|--------12-10-9---|---------------------------------|-----------------------|
A|-----------------|------------------|---------------------------------|-----------------------|
E|-----------------|------------------|---------------------------------|-----------------------|

e|-------------------16-----------------|----------------16----------|
B|-18~17~16~17~18~17----18~17~16~17~16--|----------16-17-------------|
G|--------------------------------------|-17~16~17----------10~~~~9--|
D|--------------------------------------|----------------------------|
A|--------------------------------------|----------------------------|
E|--------------------------------------|----------------------------|

e|--------7~10~13-10~13-16~12-13~16-19~16~13-------|----------19~~~~--|
B|-7~9~10------------------------------------------|------------------|
G|-------------------------------------------19-16-|-14-16-19---------|
D|-------------------------------------------------|------------------|
A|-------------------------------------------------|------------------|
E|-------------------------------------------------|------------------|

GUITAR SOLO 3(MUSTAINE)
e|---------------------|--------------------|-----14----------------------------------|
B|---------------------|--------------------|--------17~14-17~(17)-17-17~14-----------|
G|--16~~~~~~~(16)--16--|--14~~~~~~(14)--16~~|~(16)--------------------------16-14-16--|
D|---------------------|--------------------|-----------------------------------------|
A|---------------------|--------------------|-----------------------------------------|
E|---------------------|--------------------|-----------------------------------------|

e|------------------------|-14--17--16--14--------|---------------------------------|
B|------------------------|-----------------17-16-|-15--14--------------------------|
G|-16~14----16-14~~----16-|-----------------------|---------17--16--14--13------16--|
D|-------16---------------|-----------------------|-------------------------16------|
A|------------------------|-----------------------|---------------------------------|
E|------------------------|-----------------------|---------------------------------|

e|-------------------------------------|--------------------------------------------|
B|-14----------------------------------|-14~17~14-14-14~17~14-14--------------------|
G|-14------14-16-16~(16)(16)(16)~(16)--|-------------------------17-16-14-----------|
D|------16-----------------------------|----------------------------------17-16-14--|
A|-------------------------------------|--------------------------------------------|
E|-------------------------------------|--------------------------------------------|

e|-------------------------------------|-------------------------------------|
B|-------------------------------------|-------------------------------------|
G|-------------------------------------|-------------------------------------|
D|-17-16-15-14-------------------------|-------------------------------------|
A|-------------17-16-15-14----14-15-16-|-17-16-15-14-------------------------|
E|-------------------------17----------|-------------17-16-15-14-16-15-14-13-|

e|-------------------------------------|-------------------------------------|
B|-------------------------------------|-------------------------------------|
G|-------------------------------------|-------------------------------------|
D|-------------------------------------|-------------------------------------|
A|-------------------------------------|-------------------------------------|
E|-12-12-12-12-12-12-12-12-12-12-12-12-|-12-12-12-12-12-12-12-12-12-12-12-12-|

e|-------------------------------------|-------------------------------------|
B|-------------------------------------|-------------------------------------|
G|-------------------------------------|-------------------------------------|
D|-17-16-15-14-------------------------|-------------------------------------|
A|-------------17-16-15-14----14-15-16-|-17-16-15-14-------------------------|
E|-------------------------17----------|-------------17-16-15-14-16-15-14-13-|

ORDER:

INTRO

   -INTRO PT1

   -INTRO PT2

   -INTRO PT3

VERSE  

   -RHYTHM FIGURE 1

   -RHYTHM FIGURE 2

   -RHYTHM FIGURE 1

   -RHYTHM FIGURE 3

   -RHYTHM FIGURE 1

   -RHYTHM FIGURE 2

   -RHYTHM FIGURE 1

   -RHYTHM FIGURE 3

PRE-CHORUS   

CHORUS

GUITAR SOLO 1

CHORUS
 
GUITAR SOLO 2

GUITAR SOLO 3

CHORUS

OUTRO
Tap to rate this tab
# A B C D E F G H I J K L M N O P Q R S T U V W X Y Z