Song name
# A B C D E F G H I J K L M N O P Q R S T U V W X Y Z

Megadeth - The Killing Road tab

E|----------------------------------------------------------------------------------------------|
B|-------------7--------------------------------------------------------------------------------|
G|----------6-------9--6----------6--7----9----/11----9----7----7h9p7\6------6------------------|
D|-------8---------------------8-------------------------------------------------9---9----------|
A|--9---------------------9---------------------------------------------------------------------|
E|----------------------------------------------------------------------------------------------|


E|----------------------------------------------------------------------------------------------|
B|------------------------------------10-11--b12--r11----14--12--11h12h14p12p11-12------12--14--|
G|-------------/6------/11----9-11-12-----------------------------------------------11----------|
D|--8--9--8-------------------------------------------------------------------------------------|
A|----------------------------------------------------------------------------------------------|
E|----------------------------------------------------------------------------------------------|


E|--10h14p10------------------------------------------------------------------------------------|
B|-----------14-12----12------------------------------------------------------------------------|
G|-----------------11---------------------------------------------------------------------------|
D|----------------------------6-11p6-11p6---11p6---11p6-15p11----15p11----15p11-----------------|
A|----------------------------------------8------8------------11-------11-----------------------|
E|----------------------------------------------------------------------------------------------|


E|------------------------------------------------------------------------------------------------|
B|--14p11----14p11----14p11-17p14----17p14----17p14-15-17-15-14----14-15-17-15-14----14-15-17-15--|
G|--------11-------11-------------15-------15-------------------16----------------15--------------|
D|------------------------------------------------------------------------------------------------|
A|------------------------------------------------------------------------------------------------|
E|------------------------------------------------------------------------------------------------|


E|--------------------------------------------------------------15p14p12-14----15p14p12-14-13-12--|
B|--14-------15\14-------14\12-------12h14p12-----------------------------------------------------|
G|--------16----------15----------12----------12----12----13--------------------------------------|
D|-----17----------16----------14----------------14----14-----------------------------------------|
A|------------------------------------------------------------------------------------------------|
E|------------------------------------------------------------------------------------------------|


E|--------------------------------------17b19--17--14-------------------------------------------|
B|--16-15-14-13h14h15p14p13-14p13----------------------17--14--17b19--17--14--------------------|
G|--------------------------------16-14---------------------------------------16b18r16p14-16~---|
D|----------------------------------------------------------------------------------------------|
A|----------------------------------------------------------------------------------------------|
E|----------------------------------------------------------------------------------------------|


E|-----18p14----18p14----18p14-21p18----21p18----21p18-15p12----15p12----15p12-18p14----18p14-----|
B|--/--------14-------14-------------19-------19-------------14-------14-------------14-------14--|
G|------------------------------------------------------------------------------------------------|
D|------------------------------------------------------------------------------------------------|
A|------------------------------------------------------------------------------------------------|
E|------------------------------------------------------------------------------------------------|


E|--18p14-19p15----19p15----19p15-22p19----22p19----22p19-24p19----19\15----19p15----15\12------|
B|--------------17-------17-------------20-------20-------------20-------17-------17-------14---|
G|----------------------------------------------------------------------------------------------|
D|----------------------------------------------------------------------------------------------|
A|----------------------------------------------------------------------------------------------|
E|----------------------------------------------------------------------------------------------|


E|--15p12----12\9-12b14~-------14-----15-----17-----19-----19-----22b24---22b24---22b24---22b24-|
B|--------14-------------------17b19--18b20--20b22--22b24--22b24--------------------------------|
G|----------------------------------------------------------------------------------------------|
D|----------------------------------------------------------------------------------------------|
A|----------------------------------------------------------------------------------------------|
E|----------------------------------------------------------------------------------------------|
         hold bend
             V
E|--22b24--22b24--24r22~-------20-22-19-20-17-19----17------------------------------------------|
B|-----------------------------------------------20----19-20-17-19-17~--------------------------|
G|----------------------------------------------------------------------------------------------|
D|----------------------------------------------------------------------------------------------|
A|----------------------------------------------------------------------------------------------|
E|----------------------------------------------------------------------------------------------|


E|------15--17--17b19--r17p15-------------------------------------------------------------------|
B|--19------------------------18~-------17p16p15p12-15------------------------------------------|
G|------------------------------------------------------16p15p14p12-14h15p14p12-----------------|
D|------------------------------------------------------------------------------14--------------|
A|----------------------------------------------------------------------------------------------|
E|----------------------------------------------------------------------------------------------|
Tap to rate this tab
# A B C D E F G H I J K L M N O P Q R S T U V W X Y Z