Song name
# A B C D E F G H I J K L M N O P Q R S T U V W X Y Z

Megadeth - Head Crusher tab

This is the main guitar parts in this song. I have not added 2 separate guitars, but 
more of a mix. Well, have fun learning it! This is one of the most accurate versions of 
this song.
      P: Tap the note/notes
      B: Bend upwards^
      R: Release
      =: Vibrato
     ||: Repeat once
     PM: Palm mute
      /: Slide to the note
You can listen to the original song to find out the timing
Intro solo
|-19-12--18-12--17-12--15-12--17-12--18-12--19-12--18-12--17-12-------------|
|------12-----12-----12-----12-----12-----12-----12-----12-----12-----------|
|---------------------------------------------------------------------------|
|---------------------------------------------------------------------------|
|---------------------------------------------------------------------------|
|---------------------------------------------------------------------------|


|-15-12--17-12--15-12----19-12--18-12--17-12--15-12--17-12--18-12-----------|
|------12-----12-----12-------12-----12-----12-----12-----12----------------|
|---------------------------------------------------------------------------|
|---------------------------------------------------------------------------|
|---------------------------------------------------------------------------|
|---------------------------------------------------------------------------|

|-12------------------------------------------------------------------------|
|---15-12-15-15-12--12-12---------------------------------------------------|
|-----------------15-----15-12-15-15-12==-----------------------------------|
|---------------------------------------------------------------------------|
|---------------------------------------------------------------------------|
|---------------------------------------------------------------------------|

 And again, slightly different ending
|-19-12--18-12--17-12--15-12--17-12--18-12--19-12--18-12--17-12-------------|
|------12-----12-----12-----12-----12-----12-----12-----12-----12-----------|
|---------------------------------------------------------------------------|
|---------------------------------------------------------------------------|
|---------------------------------------------------------------------------|
|---------------------------------------------------------------------------|


|-15-12--17-12--15-12----19-12--18-12--17-12--15-12--17-12--18--------------|
|------12-----12-----12-------12-----12-----12-----12-----12----------------|
|---------------------------------------------------------------------------|
|---------------------------------------------------------------------------|
|---------------------------------------------------------------------------|
|---------------------------------------------------------------------------|


|-12-----------------------------------------------------------------------|
|---15-12-15-15-12--12-12--------------------------------------------------|
|-----------------15-----15-12-15-15-12--12-12-11====----------------------|
|--------------------------------------14----------------------------------|
|--------------------------------------------------------------------------|
|--------------------------------------------------------------------------|

The main riffs
    1.st time played "Its time to take your last walk in this world, before              
             your journey begins underground"
    2.nd time played "The horrific torture device, for those who fail interrogation"
|--------------------------------------------------------------------------|
|--------------------------------------------------------------------------|
|--------------------------------------------------------------------------|
|----------------------------2-4-5------------------------------------5-5--|
|--------------------2-------0-2-3-------------------2----------------5-5--|
|-0-2222222-5-2222222-2222222-----0-2222222-5-2222222-2222222-5-3-2-0-3-3--|

   1.st time "Not before we torment you from your cell, straight to hell! With a short 
detour in between"

   2.nd time "The most painful technique ever known, people thirst for the worst! The 
skulls disintegration"
|----------------------------------------------------------------------|
|----------------------------------------------------------------------|
|----------------------------------------------------------------------|
|----------------------------2-4-5-------------------6-5-4-5-----------|
|--------------------2-------0-2-3-------------------4-3-2-5-----------|
|-0-2222222-5-2222222-2222222-----0-2222222-5-2222222------3-----------|

1.st time "Begging for mercy, your all alone. Unable to handle the pressure"
2.nd time "Beaten, broken, in bloody wreck. Adding insult to injury."

|--------------------------------------------------------------------------|
|--------------------------------------------------------------------------|
|--------------------------------------------------------------------------|
|----------------------------2-4-5------------------------------------5-5--|
|--------------------2-------0-2-3-------------------2----------------5-5--|
|-0-2222222-5-2222222-2222222-----0-2222222-5-2222222-2222222-5-3-2-0-3-3--|
1st. time "Before its mortification, now let the torture begin!"
2nd. time "Heed the cast, but its much too late, now let the torture begin!"


|---------------------------------------------------------------------|
|---------------------------------------------------------------------|
|---------------------------------------------------------------------|
|----------------------------2-4-5--5-4-2-5-4-2-----------------------|
|--------------------2-------0-2-3--5-4-2-3-2-0---6--7--9---5---------|
|-0-2222222-5-2222222-2222222-------3-2-0---------4--5--7---3---------|

       "Death by the headcrusher, headcrusher!Death by the headcrusher"
 Main Chorus
||------------------------------------------------------------------------||
||------------------------------------------------------------------------||
||------------------------------------------------------------------------||
||------------------------------------------------------------------------||
||----------------------------------------------------------------------5-||
||0-2222-0--0-2222-0--0-2222-0-0-2222-0-0-2222-0-0-2222-0-0-2222-0-0-2223-||

And then you repeat the main riffs.

      "On your knees, prisoners intake your positions"
|---0--------0---------0------0--------0-----------0---------|
|----0--------0---------0------0--------0-----------0--------|
|------------------------------------------------------------|
|-2----3---2----5----2----3-2----3---2-----5---2------3------|
|-2----1---2----5----2----3-2----1---2-----5---2------3------|
|-0--------0----3----0----1-0--------0-----3---0------1------|

    "Place your chin forward into the restraint"
|---0--------0---------0------0--------0-----------0---------|
|----0--------0---------0------0--------0-----------0--------|
|------------------------------------------------------------|
|-2----3---2----5----2----3-2----3---2-----5---2------3------|
|-2----1---2----5----2----3-2----1---2-----5---2------3------|
|-0--------0----3----0----1-0--------0-----3---0------1------|

   "Your head slowly caves in from the compression"
|---2-------2---------2-----2-------2-------2-------------|
|----2-------2---------2-----2-------2-------2------------|
|---------------------------------------------------------|
|------5-----------------------5--------------------------|
|------3--------4--------------3-------4------------------|
|-2-------2-----5---2----3-2------2----5---2----3---------|

   "You'll faint to black out from the infernal pain."
|---2-------2---------2-----2-------2-------2-------------|
|----2-------2---------2-----2-------2-------2------------|
|---------------------------------------------------------|
|------5-----------------------5--------------------------|
|------3--------4--------------3-------4------------------|
|-2-------2-----5---2----3-2------2----5---2----3---------|


"AAAAAAAAAAAAAAAAAAAAAAHHHHHHHHHHHHHHHHHH!!!!"


|------------------------------------------------------------------|
|------------------------------------------------------------------|
|------------------------------------------------------------------|
|------------------------------------------------------------------|
|------------------------------------------------------------------|
|-0-0-0-0-0-0-0-0-0-0-0-0-0-0-0-0-0-0-0-0-0-0-0-0-0-0-0-0-0-0-0-0--|
 PM all of the zero'es

||-----------------------------------------------------------------||
||-----------------------------------------------------------------||
||-----------------------------------------------------------------||
||-----9-----------2-----5---7/8/7---------------------------------||
||-----7-----8-----2-----5---7/8/7---------------------------------||
||-0-0---0-0-6-0-0-0-0-0-3-0-5/6/5-0-0-0-0-0-0-0-0-0-0-0-0-0-0-0-0-||


|-----------------------------------|
|-----------------------------------|
|-----------------------------------|
|-----9-----------2-----5---7/8/7---|
|-----7-----8-----2-----5---7/8/7---|
|-0-0---0-0-6-0-0-0-0-0-3-0-5/6/5---| <- repeat 3 times


|-----------------------------------|
|-----------------------------------|
|-----------------------------------|
|-----------------------------------|
|-----------------------------------|
|-0-0-0-0-0-0-0-0-0-0-0-0-0-0-0-0---|


 "Twisting, jerking the shiest move. Your teeth are breaking loose."

|----------------------------------------------------------------------|
|----------------------------------------------------------------------|
|----------------------------------------------------------------------|
|-9------------9/8-8------------8/7-7------------7/6-6----------6/5----|
|-7------------7/6-6------------6/5-5------------5/4-4----------4/3----|
|---000-000000-------000-000000-------000-000000-----000-000000--------|
Keep on palm muting those zeroe's! :D

  "Crushed and splintering into your mouth!"
|------------------------------------------------|
|------------------------------------------------|
|------------------------------------------------|
|------------5/4-4--------4-2--------------------|
|------------3/2-2--------2-0-5------------------|
|-000-000000--------0-0-0-----3------------------|


|----3--------3--------3----------------|
|-----3--------3--------3---------------|
|---------------------------------------|
|-------3-----------------3-------------|
|-------1--------5--------3-------------|
|-0--------0-----3---0----1-------------|

"Winding down, cutting through. Life broken glass being chewed"
|----------------------------------------------------------------------|
|----------------------------------------------------------------------|
|----------------------------------------------------------------------|
|-9------------9/8-8------------8/7-7------------7/6-6----------6/5----|
|-7------------7/6-6------------6/5-5------------5/4-4----------4/3----|
|---000-000000-------000-000000-------000-000000-----000-000000--------|

"Your fragmented skull and shattering bones. There's nothing you can do!"
|------------------------------------------------------------------|
|------------------------------------------------------------------|
|------------------------------------------------------------------|
|------------5/4-4--------4-2-5-------9-----------2-----5---7/8/7--|
|------------3/2-2--------2-0-5-------7-----8-----2-----5---7/8/7--|
|-000-000000-------000-00-----3---0-0---0-0-6-0-0-0-0-0-3-0-5/6/5--|


Guitar solo- This solo is played very fast, alot of shredding.
|-------------------------18--18----------24--24------------------------|
|--------------------17-----17------23------23----22^24--22-20--22^24===|
|---------15--15---15--15---------21--21--------------------------------|
|---13------14----------------------------------------------------------|
|-12--12----------------------------------------------------------------|
|-----------------------------------------------------------------------|


|---16--17--16-17--16P17R16---16--------------------------------|
|-17--18--------------------18--17P18--17^18--17-17-15==--------|
|---------------------------------------------------------------|
|---------------------------------------------------------------|
|---------------------------------------------------------------|
|---------------------------------------------------------------|



|-------16-17----16-16-17-17-19-19-20-20-19-19-17-17-16-16-----------18==|
|-17-18-------18------------------------------------------18-17-15-------|
|-----------------------------------------------------------------15=====|
|------------------------------------------------------------------------|
|------------------------------------------------------------------------|
|------------------------------------------------------------------------|


|20-22-24-24-24-24-24-24-24-24-24-22-20-19-22-20-19-17-20-20-20-20-|
|------------------------------------------------------------------|
|------------------------------------------------------------------|
|------------------------------------------------------------------|
|------------------------------------------------------------------|
|------------------------------------------------------------------|


|-20-20-20-20-20-19-17-16-19-17-16---17-16------16-------------|
|----------------------------------18-----18-17---18-17-15-14--|
|--------------------------------------------------------------|
|--------------------------------------------------------------|
|--------------------------------------------------------------|
|--------------------------------------------------------------|




|-----------------------------------------------------------------------|
|-12--------------------------------------------------------------------|
|---14-13-11-10----------14-13-11-10-11-10-------------------15=====----|
|---------------12-11-9--------------------PM12-PM11-PM9----------------|
|-------------------------------------------------PM12-PM11-PM9-PM8-----|
|-----------------------------------------------------------------------|



|--------------------------16P19R16---16-17-16-------16---------------------|
|-15^17-15=15^17=-------17----------17---------18-17---18-17-15-18-17-15----|
|-----------------------------------------------------------------------17--|
|---------------------------------------------------------------------------|
|---------------------------------------------------------------------------|
|---------------------------------------------------------------------------|


|----------------------------------------------------------------------|
|-15-------------------------------------------------------------------|
|---17-16-14-17-PM16-14-13-14-13-------------13------------------------|
|-----------------------------PM15-PM14--PM12--PM14-PM12-14-15-14====--|
|----------------------------------------------------------------------|
|----------------------------------------------------------------------|


|-----------------------------------------------|
|-----------------------------------------------|
|-----------------------------------------------|
|-3----2==--------------------------------------|
|-1-3--2==--------------------------------------|
|---1--0==--------------------------------------|


That was it folks! I hope you enjoyed the tab. Send an e-mail to hakon_mw2@hotmail.com 
if you have any requests for any tabs. Ill be sure to check them up!

-Håkon K Dekkerhus
Tap to rate this tab
 
# A B C D E F G H I J K L M N O P Q R S T U V W X Y Z