Song name
# A B C D E F G H I J K L M N O P Q R S T U V W X Y Z

Megadeth - Mechanix tab

Help us improve GuitareTab! Take a short survey!
Solo (Mustaine)
e|----------------------------------15-|
B|-------------------------15----14----|
G|----------------14----13----12-------|
D|-------14----13----12----------------|
A|----13----12-------------------------|
E|-12----------------------------------|

e|-12h15p12-15h17p15-12----------------|
B|----------------------17-15-12-15-17-|
G|-------------------------------------|
D|-------------------------------------|
A|-------------------------------------|
E|-------------------------------------|

e|-12h15p12-15h17p12-15p12----------12-|
B|-------------------------15-17p12----|
G|-------------------------------------|
D|-------------------------------------|
A|-------------------------------------|
E|-------------------------------------|

e|-15p12h15-17p15p12-------------------|
B|-------------------17p15p12-15h17-12-|
G|-------------------------------------|
D|-------------------------------------|
A|-------------------------------------|
E|-------------------------------------|

e|-------------------------------------|
B|-15h17-15p12-------------------------|
G|-------------16p15-15p14p12----12h14-|
D|----------------------------14-------|
A|-------------------------------------|
E|-------------------------------------|

e|-------------------------------------|
B|-------15p12-------------------------|
G|-15h16-------16p15-14p12-14h15-14p12-|
D|-------------------------------------|
A|-------------------------------------|
E|-------------------------------------|

e|-------------------------------------|
B|-------------------------------------|
G|----12-------------------------------|
D|-14----14p13p12-14p13p12-------------|
A|-------------------------14p13p12-13-|
E|-------------------------------------|
                                                      x2
e|-12-----------12-----------12-----------12-----------|
B|---15p12--------15p12--------15p12--------15p12------|
G|--------14b16--------14b16--------14b16--------14b16-|
D|-----------------------------------------------------|
A|-----------------------------------------------------|
E|-----------------------------------------------------|

e|----------------------------------------|
B|-12-------------------------------------|
G|----15p12-14p12----12h14h15-13=14h15h16-|
D|----------------14----------------------|
A|----------------------------------------|
E|----------------------------------------|

e|-------------------------------------|
B|-------------------------------------|
G|----12-16p14p12----------------------|
D|-14----------------12h14p12-12-14-14-|
A|----------------14-------------------|
E|-------------------------------------|

e|---------------------------------------------------------|
B|---------------------------------------------------------|
G|---------------------------------------------------------|
D|-12h13h14-13p12------------------------------------------|
A|----------------14-12h13h14-14p13p12-12------------------|
E|----------------------------------------15p12-15p12-12-0-|

                                      x3
e|-24-22-19-19-19-19-24-22-19-19-19-19-|
B|-------------------------------------|
G|-------------------------------------|
D|-------------------------------------|
A|-------------------------------------|
E|-------------------------------------|

e|-24p22p19----19-19-24p22p19----19-19-|
B|----------22----------------22-------|
G|-------------------------------------|
D|-------------------------------------|
A|-------------------------------------|
E|-------------------------------------|

e|-24p22p19----24p22p19----24p22p19----24p22p19----|
B|----------22----------22----------22----------22-|
G|-------------------------------------------------|
D|-------------------------------------------------|
A|-------------------------------------------------|
E|-------------------------------------------------|

e|-24p22p19-19-24p22p19-24p22p19-24p22p19-24p22p19-24p22p19-|
B|----------------------------------------------------------|
G|----------------------------------------------------------|
D|----------------------------------------------------------|
A|----------------------------------------------------------|
E|----------------------------------------------------------|

e|-24p22p19-24p22p19-24b26-24b27-| -> Other strings are hit
B|-------------------------------|    by mistake during bend
G|-------------------------------|
D|-------------------------------|
A|-------------------------------|
E|-------------------------------|

e|-15p12----12-15p12-15p12----12-15p12-|
B|-------15----------------15----------|
G|-------------------------------------|
D|-------------------------------------|
A|-------------------------------------|
E|-------------------------------------|

e|-17p12----12-17p12-15p12----12-12-12-|
B|-------15----------------15----------|
G|-------------------------------------|
D|-------------------------------------|
A|-------------------------------------|
E|-------------------------------------|

e|-------------------------------------|
B|-15p12----12-15p12-15p12----12-15p12-|
G|-------15----------------15----------|
D|-------------------------------------|
a|-------------------------------------|
E|-------------------------------------|

e|-------------------------------------|
B|-17p12----12-17p12-15p12----12-12-12-|
G|-------15----------------15----------|
D|-------------------------------------|
a|-------------------------------------|
E|-------------------------------------|

e|-------12-12h15p12-15h7p15-12/13-18-|
B|-12h15------------------------------|
G|------------------------------------|
D|------------------------------------|
A|------------------------------------|
E|------------------------------------|

e|----------15-17-18-18p17-15h17-15-|
B|-15-17-18-------------------------|
G|----------------------------------|
D|----------------------------------|
A|----------------------------------|
E|----------------------------------|

e|-15-------15/17-18-18-20-18-17-18----|
B|----17-18-------------------------20-|
G|-------------------------------------|
D|-------------------------------------|
A|-------------------------------------|
E|-------------------------------------|

e|-------------18-20-20-22-20-18----18-|
B|-21-18-20-18-------------------20----|
G|-------------------------------------|
D|-------------------------------------|
A|-------------------------------------|
E|-------------------------------------|

e|-22-(22)b24~--{22}~-{22}~-{22}~-{22}~-{22}~-{22}~-|
B|--------------------------------------------------|
G|--------------------------------------------------|
D|--------------------------------------------------|
A|--------------------------------------------------|
E|--------------------------------------------------|

e|-24b26~----{24}~-{24}~-{24}~-{24}~--(24)\-|
B|------------------------------------------|
G|------------------------------------------|
D|------------------------------------------|
A|------------------------------------------|
E|------------------------------------------|


End Solo
Related for Mechanix tab