Song name
# A B C D E F G H I J K L M N O P Q R S T U V W X Y Z

Megadeth - Breakpoint tab

#----------------------------------PLEASE NOTE---------------------------------#
#This file is the author's own work and represents their interpretation of the #
#song. You may only use this file for private study, scholarship, or research. #
#------------------------------------------------------------------------------#

BREAKPOINT
As recorded by Megadeth
(From the 1995 Album HIDDEN TREASURES)

Transcribed by Russ Elton (webmaster@abysslord.com) & Jordan B. (sansamppsa1@hotmail.com)
	

Words and Music by Dave Mustaine, David Ellefson, Nick Menza
Arranged by Russ Elton (webmaster@abysslord.com) & Jordan B. (sansamppsa1@hotmail.com)

Gtr I (E A D G B E) - 'Rhythm Guitar'
Gtr II (E A D G B E) - 'Rhythm Guitar'
Gtr III (E A D G B E) - 'Lead Guitar'

   Intro
    Q=160
    N.C.                          F#5 E5    F#5
   4/4
    Gtrs I, II
    PM------|       PM------|
    E S S S S E +E  E S S S S  7x  E. S +E   E H
||-----------------------------||-------------------||
||o---------------------------o||-------------------||
||-----------------------------||-------------------||
||-----------------------------||-11--9-(9)-11------||
||o---------------------------o||--9--7-(7)--9------||
||--2-2-2-3-2-2-(2)-2-5-3-2-0--||-------------------||


   Pre-Verse
    F#5
    Gtr II
     W
||-----------------------------|
||o----------------------------|
||-----------------------------|
||--11-------------------------|
||o--9-------------------------|
||-----------------------------|
|
|   Gtr I
|    PM------|       PM---------
|    E S S S S E +E  E S S S S
||-----------------------------|
||o----------------------------|
||-----------------------------|
||-----------------------------|
||o----------------------------|
||---2-2-2-3-2-2-(2)-2-5-3-2-0-|


  D5                            F#5
  W                              W
|----------------------------||-----------------------------|
|---------------------------o||-----------------------------|
|----------------------------||-----------------------------|
|-7--------------------------||-11--------------------------|
|-5-------------------------o||--9--------------------------|
|----------------------------||-----------------------------|
|
|---------|       PM---------------------|       PM------|
| E S S S S E +E  E S S S S      E S S S S E +E  E S S S S
|----------------------------||-----------------------------|
|---------------------------o||-----------------------------|
|----------------------------||-----------------------------|
|----------------------------||-----------------------------|
|---------------------------o||-----------------------------|
|-2-2-2-3-2-2-(2)-2-5-3-2-0--||--2-2-2-3-2-2-(2)-2-5-3-2-0--|


  E5
  W
|---------------------------|
|---------------------------|
|---------------------------|
|-9-------------------------|
|-7-------------------------|
|---------------------------|
|
| PM------|       PM---------
| E S S S S E +E  E S S S S
|---------------------------|
|---------------------------|
|---------------------------|
|---------------------------|
|---------------------------|
|-2-2-2-3-2-2-(2)-2-5-3-2-0-|


  D5                          C#5               A5
  W                           H           +Q    Q
|---------------------------|---------------------------|
|---------------------------|---------------------------|
|---------------------------|---------------------------|
|-7-------------------------|-6-----------(6)---2-------|
|-5-------------------------|-4-----------(4)---0-------|
|---------------------------|---------------------------|
|
|---------|       PM------------------|       PM------|
| E S S S S E +E  E S S S S   E S S S S E +E  E S S S S
|---------------------------|---------------------------|
|---------------------------|---------------------------|
|---------------------------|---------------------------|
|---------------------------|---------------------------|
|---------------------------|---------------------------|
|-2-2-2-3-2-2-(2)-2-5-3-2-0-|-2-2-2-3-2-2-(2)-2-5-3-2-0-|


  F#5
  W
|---------------------------|
|---------------------------|
|---------------------------|
|---------------------------|
|-4-------------------------|
|-2-------------------------|
|
| PM------|       PM---------
| E S S S S E +E  E S S S S
|---------------------------|
|---------------------------|
|---------------------------|
|---------------------------|
|---------------------------|
|-2-2-2-3-2-2-(2)-2-5-3-2-0-|


                                    F#5 E5    F#5
    +W                               E. S +E   E H
||-------------------------------||-------------------||
||o-----------------------------o||-------------------||
||-------------------------------||-------------------||
||-------------------------------||-11--9-(9)-11------||
||o-(4)-------------------------o||--9--7-(7)--9------||
||--(2)--------------------------||-------------------||
|
|-------------|       PM------|
|    E  S S S S E +E  E S S S S      E. S +E   E H
||-------------------------------||-------------------||
||o-----------------------------o||-------------------||
||-------------------------------||-------------------||
||-------------------------------||-11--9-(9)-11------||
||o-----------------------------o||--9--7-(7)--9------||
||---2--2-2-3-2-2-(2)-2-5-3-2-0--||-------------------||


   Verse
    $$
    N.C.                          G5         E5   G5
    Gtrs I, II
    PM------|       PM------|
    E S S S S E +E  E S S S S  4x W          H    H
||-----------------------------||----------|-----------|
||o---------------------------o||----------|-----------|
||-----------------------------||----------|-----------|
||-----------------------------||----------|-----------|
||o---------------------------o||-5--------|-2----5----|
||--2-2-2-3-2-2-(2)-2-5-3-2-0--||-3--------|-0----3----|


  N.C.
  Gtr III
   S  S  S  S  S  S  E  +Q     Q
|-18-18-18-18-18-18-18-(18)\-----------|
|-17-17-17-17-17-17-17-(17)\-----------|
|-18-18-18-18-18-18-18-(18)\-----------|
|--------------------------------------|
|--------------------------------------|
|--------------------------------------|
|
| Gtrs I, II
|  PM------------|           PM---------
|  E     S  S  S  S  E  +E   E S S S S
|--------------------------------------|
|--------------------------------------|
|--------------------------------------|
|--------------------------------------|
|--------------------------------------|
|--2-----2--2--3--2--2--(2)--2-5-3-2-0-|


                                                             G5          E5    G5
                                                              ~~
   E.      S      +E     S     +S   E.    S     +E     E      W          W
|----------------------------------------------------------|-----------|---------------||
|-17b19----------------------------------------------------|-----------|---------------||
|---------16pb18r(16)---14b16r(14)-------------------------|-----------|---------------||
|----------------------------------16----------------------|-12--------|---------------||
|----------------------------------------14b16r(14)S==12---|-----------|---------------||
|----------------------------------------------------------|-----------|---------------||
|
|---------------------|                PM----------------|               PM--------|
|                                                                        |-3-| |-3-|
|  E    S  S       S  S  E         +E  E         S  S  S S    W          Q Q Q Q Q Q
|----------------------------------------------------------|-----------|---------------||
|----------------------------------------------------------|-----------|---------------||
|----------------------------------------------------------|-----------|---------------||
|----------------------------------------------------------|-----------|---------------||
|----------------------------------------------------------|--5--------|-2-2-2-5-5-5---||
|--2----2--2-------3--2--2---------(2)-2---------5--3--2-0-|--3--------|-0-0-0-3-3-3---||


 Pre-Chorus
  $
  N.C.                                                      E5  F#5
  Gtrs I, II
  E E E E E E E E   E E E E +E  E E E   E E E E E E E E   E E E E H
|-----------------|-------------------|-----------------|--------------||
|-----------------|-------------------|-----------------|--------------||
|-----------------|---2---------------|-----------------|--------------||
|-----4-----5-5-4-|-------5-(5)-2-----|-----4-----5---4-|--------------||
|---1-----1-------|-----1---------1-4-|---1-----1-------|---2---4------||
|-2-----2---------|-0-----------------|-2-----2-----0---|-x-0---2------||


   Chorus
    C5 G5    Eb5   Bb5A5D5
    E. S +E  E +S  E. E E
||------------------------|
||o-----------------------|
||------------------------|
||--5--------8-(8)------7-|
||o-3--5-(5)-6-(6)-8--7-5-|
||-----3-(3)-------6--5---|


                                    1.
  N.C.                              C5 G5    Eb5   Bb5A5D5
  S S S S S S S S S S S S S S S S   E. S +E  E +S  E. E E
|---------------------------------|------------------------|
|---------------------------------|------------------------|
|-----------------5-4-2-0---------|------------------------|
|-4-3-2-0-----------------5-4-2-0-|-5--------8-(8)------7--|
|---------4-3-2-0-----------------|-3--5-(5)-6-(6)-8--7-5--|
|---------------------------------|----3-(3)-------6--5----|


  N.C.
  S S S S S S S S S S S S S S S S
|----------------------------------||
|---------------------------------o||
|-5-4-2-0-5-4-2-0------------------||
|-----------------5-4-2-0----------||
|-------------------------5-4-2-0-o||
|----------------------------------||


  2.
          To Dbl. Coda                To Coda
  C5 G5    Eb5   Bb5     C5 G5    Eb5   Bb5A5D5
  E. S +E  E +S  E. Q    E. S +E  E +S  E. E E
|----------------------|-----------------------||
|----------------------|-----------------------||
|----------------------|-----------------------||
|-5--------8-(8)-------|-5--------8-(8)------7-||
|-3--5-(5)-6-(6)-8-----|-3--5-(5)-6-(6)-8--7-5-||
|----3-(3)-------6-----|----3-(3)-------6--5---||


 Guitar Solo (Friedman)
  F#5
  Gtr III
   Q       +E      E    S  S S S S S S S
|-----------------------2----------------|
|--------------------------2-5p2---------|
|--4b6r====(4)b6---4b6-----------5p4p2---|
|--------------------------------------4-|
|----------------------------------------|
|----------------------------------------|
|
| Gtr II
|  W
|----------------------------------------|
|----------------------------------------|
|----------------------------------------|
|-11-------------------------------------|
|--9-------------------------------------|
|----------------------------------------|
|
| Gtr I
|  PM------------|           PM-----------
|  E   S S  S    S E   +E    E   S S S S
|----------------------------------------|
|----------------------------------------|
|----------------------------------------|
|----------------------------------------|
|----------------------------------------|
|--2---2-2--3----2-2---(2)---2---5-3-2-0-|


  D5                                   F#5
  ~
  H           +S  S E    +S  +S  S S    Q     +S  S E    +Q.       +E
|------------------------------------|-------------------------------------|
|------------------------------------|--------------6b7==(6)r======(6)-----|
|-2-----------(2)s4-4b6==(4)r(4)s6h9-|--6-----(6)s4------------------------|
|------------------------------------|-------------------------------------|
|------------------------------------|-------------------------------------|
|------------------------------------|-------------------------------------|
|
| W                                     W
|------------------------------------|-------------------------------------|
|------------------------------------|-------------------------------------|
|------------------------------------|-------------------------------------|
|-7----------------------------------|-11----------------------------------|
|-5----------------------------------|--9----------------------------------|
|------------------------------------|-------------------------------------|
|
|---------|         PM----------------------------|          PM--------|
| E S S S S E +E    E     S   S  S S    E S S  S  S E    +E  E S S  S  S
|------------------------------------|-------------------------------------|
|------------------------------------|-------------------------------------|
|------------------------------------|-------------------------------------|
|------------------------------------|-------------------------------------|
|------------------------------------|-------------------------------------|
|-2-2-2-3-2-2-(2)---2-----5---3--2-0-|--2-2-2--3--2-2----(2)-2-5-3--2--0---|


  D5                                  F#5
                                       ~~~
                                                     |-----3------|
  S S S S S S S S  S  S S S S S S S    Q.         E  Q     Q      q
|-----------------------------------|-----------------------------------|
|-7-6-------------------------------|---------------14----15-----17-----|
|-----9-8-7-6---7--6----------------|-----------------------------------|
|-------------9-------9S8-7-6-5S4-0-|-----------------------------------|
|-----------------------------------|--4--------------------------------|
|-----------------------------------|-----------------------------------|
|
| W                                    W
|-----------------------------------|-----------------------------------|
|-----------------------------------|-----------------------------------|
|-----------------------------------|-----------------------------------|
|-7---------------------------------|-11--------------------------------|
|-5---------------------------------|--9--------------------------------|
|-----------------------------------|-----------------------------------|
|
| PM--------|           PM----------------------|       PM---------------
| E   S S S S E   +E    E   S S S S    E  S S S S E +E  E    S S    S S
|-----------------------------------|-----------------------------------|
|-----------------------------------|-----------------------------------|
|-----------------------------------|-----------------------------------|
|-----------------------------------|-----------------------------------|
|-----------------------------------|-----------------------------------|
|-2---2-2-3-2-2---(2)---2---5-3-2-0-|--2--2-2-3-2-2-(2)-2----5-3----2-0-|


  E5
   E     +Q            S  S  E     +E      +S   S  e
|----------------------------------------------14-16----|
|-15b17r(15)b17-------15-14-17b19r(17)b19r(17)----------|
|-------------------------------------------------------|
|-------------------------------------------------------|
|-------------------------------------------------------|
|-------------------------------------------------------|
|
|  W
|-------------------------------------------------------|
|-------------------------------------------------------|
|-------------------------------------------------------|
|--9----------------------------------------------------|
|--7----------------------------------------------------|
|-------------------------------------------------------|
|
|-------------------|               PM---------------|
|  E      S     S S S  E    +E      E       S   S  S S
|-------------------------------------------------------|
|-------------------------------------------------------|
|-------------------------------------------------------|
|-------------------------------------------------------|
|-------------------------------------------------------|
|--2------2-----2-3-2--2----(2)-----2-------5---3--2-0--|


  D5
                     ~~~~~~~~~~~~~
                                      |----3----|
   Q          +E     E       +E    E  E    E    E
|-16pb17r====(16)---16pb17==(16)r--------------14---|
|---------------------------------------------------|
|---------------------------------14h16h==17--------|
|---------------------------------------------------|
|---------------------------------------------------|
|---------------------------------------------------|
|
|  W
|---------------------------------------------------|
|---------------------------------------------------|
|---------------------------------------------------|
|--7------------------------------------------------|
|--5------------------------------------------------|
|---------------------------------------------------|
|
|  PM-------------|                PM----------------
|  E     S S   S  S  E       +E    E  S S    S    S
|---------------------------------------------------|
|---------------------------------------------------|
|---------------------------------------------------|
|---------------------------------------------------|
|---------------------------------------------------|
|--2-----2-2---3--2--2-------(2)---2--5-3----2----0-|


  C#5                                   A5                 F#5
                                                            ~~
   |---3---|    |----3----|  |---3----|
   E  E    E    E    E    E  E   E    E  E        +e        W
|-------------------14-----------------------------------|----------------------------|
|--------------------------------------------------------|----------------------------|
|-17p16p==14-------------17p16p=14------16b18====(16)r---|-14-------------------------|
|--------------16--------------------16------------------|----------------------------|
|--------------------------------------------------------|----------------------------|
|--------------------------------------------------------|----------------------------|
|
|  H                        +Q           Q                  W
|--------------------------------------------------------|----------------------------|
|--------------------------------------------------------|----------------------------|
|--------------------------------------------------------|----------------------------|
|--6------------------------(6)----------2---------------|----------------------------|
|--4------------------------(4)----------0---------------|--4-------------------------|
|--------------------------------------------------------|--2-------------------------|
|
|-----------------|                PM-------------------------------|       PM------|
|  E    S    S  S S    E    +E     E     S     S   S   S    E S S S S E +E  E S S S S
|--------------------------------------------------------|----------------------------|
|--------------------------------------------------------|----------------------------|
|--------------------------------------------------------|----------------------------|
|--------------------------------------------------------|----------------------------|
|--------------------------------------------------------|----------------------------|
|--2----2----2--3-2----2----(2)----2-----5-----3---2---0-|--2-2-2-3-2-2-(2)-2-5-3-2-0-|


    ~~~~~~~~~~~~~~~~~~~~~~~~~~~~
   +W
|------------------------------|
|------------------------------|
|-(14)-------------------------|
|------------------------------|
|------------------------------|
|------------------------------|
|
|  +W
|------------------------------|
|------------------------------|
|------------------------------|
|------------------------------|
|--(4)-------------------------|
|--(2)-------------------------|
|
|   PM-------|       PM---------
|   E  S S S S E +E  E S S S S
|------------------------------|
|------------------------------|
|------------------------------|
|------------------------------|
|------------------------------|
|---2--2-2-3-2-2-(2)-2-5-3-2-0-|


                                 F#5 E5    F#5
 ~~~~~~
   +W                             W
|------------------------------|-------------------||
|------------------------------|-------------------||
|-(14)-------------------------|-------------------||
|------------------------------|-------------------||
|------------------------------|-------------------||
|------------------------------|-------------------||
|
|  +W                             E. S +E   E H
|------------------------------|-------------------||
|------------------------------|-------------------||
|------------------------------|-------------------||
|------------------------------|-11--9-(9)-11------||
|--(4)-------------------------|--9--7-(7)--9------||
|--(2)-------------------------|-------------------||
|
|------------|       PM------|
|   E  S S S S E +E  E S S S S    E. S +E   E H
|------------------------------|-------------------||
|------------------------------|-------------------||
|------------------------------|-------------------||
|------------------------------|-11--9-(9)-11------||
|------------------------------|--9--7-(7)--9------||
|---2--2-2-3-2-2-(2)-2-5-3-2-0-|-------------------||


   Verse
    N.C.                          G5         E5   G5
    Gtrs I, II
    PM------|       PM------|
    E S S S S E +E  E S S S S  4x W          H    H
||-----------------------------||----------|-----------|
||o---------------------------o||----------|-----------|
||-----------------------------||----------|-----------|
||-----------------------------||----------|-----------|
||o---------------------------o||-5--------|-2----5----|
||--2-2-2-3-2-2-(2)-2-5-3-2-0--||-3--------|-0----3----|


  N.C.
  Gtr III
   S  S  S  S  S  S  E  +Q     E    S  S
|-18-18-18-18-18-18-18-(18)\-------------|
|-17-17-17-17-17-17-17-(17)\-------17p14-|
|-18-18-18-18-18-18-18-(18)\-------------|
|----------------------------------------|
|----------------------------------------|
|----------------------------------------|
|
| Gtrs I, II
|  PM------------|           PM-----------
|  E     S  S  S  S  E  +E   E S S  S  S
|----------------------------------------|
|----------------------------------------|
|----------------------------------------|
|----------------------------------------|
|----------------------------------------|
|--2-----2--2--3--2--2--(2)--2-5-3--2--0-|


                                                         D.S. al Coda
                                           G5            E5    G5
                            ~~~~~~~~~~~~~~~~~~~~
   E     +E     S  S  S  S  H               +W           W
|--------------14------------------------|-------------|----------------||
|-17b19-(17)------17-14------------------|-------------|----------------||
|-----------------------16-14------------|-(14)--------|----------------||
|----------------------------------------|-------------|----------------||
|----------------------------------------|-------------|----------------||
|----------------------------------------|-------------|----------------||
|
|-----------------|            PM------|                 PM--------|
|                                                        |-3-| |-3-|
|  E      S  S  S  S  E    +E  E S S S S     W           Q Q Q Q Q Q
|----------------------------------------|-------------|----------------||
|----------------------------------------|-------------|----------------||
|----------------------------------------|-------------|----------------||
|----------------------------------------|-------------|----------------||
|----------------------------------------|---5---------|-2-2-2-5-5-5----||
|--2------2--2--3--2--2----(2)-2-5-3-2-0-|---3---------|-0-0-0-3-3-3----||


 Guitar Solo (Friedman)
  &
  F#5                                    D5
  Gtr III
   ~~~~~                                  ~~~~~~~~~~~~~~~~~
   H               Q       +E     S  S    H            +E   S  S  S  S  S  S
|--------------------------------------|-------------------------------------|
|--------------------------------------|-------------------------------------|
|-16b18-----------16b18r==(16)---14-16-|-------------------13-14----13-14-16-|
|--------------------------------------|-16-----------(16)-------16----------|
|--------------------------------------|-------------------------------------|
|--------------------------------------|-------------------------------------|
|
| Gtr II
|  W                                      W
|--------------------------------------|-------------------------------------|
|--------------------------------------|-------------------------------------|
|--------------------------------------|-------------------------------------|
|-11-----------------------------------|--7----------------------------------|
|--9-----------------------------------|--5----------------------------------|
|--------------------------------------|-------------------------------------|
|
| Gtr I
|  PM---------|         PM------------------------|         PM----------------
|  E    S S S S E +E    E   S  S  S  S    E S S S S E  +E   E     S  S  S  S
|--------------------------------------|-------------------------------------|
|--------------------------------------|-------------------------------------|
|--------------------------------------|-------------------------------------|
|--------------------------------------|-------------------------------------|
|--------------------------------------|-------------------------------------|
|--2----2-2-3-2-2-(2)---2---5--3--2--0-|--2-2-2-3-2-2--(2)--2-----5--3--2--0-|


  F#5
   |---------3---------|
   Q       Q           Q       Q        +E     +S   S
|-------------------------------------------------------|
|-------------------------------------------------------|
|-16b18---16b18-------16b18---16b18====(16)r==(16)p14---|
|-------------------------------------------------------|
|-------------------------------------------------------|
|-------------------------------------------------------|
|
|  W
|-------------------------------------------------------|
|-------------------------------------------------------|
|-------------------------------------------------------|
|-11----------------------------------------------------|
|--9----------------------------------------------------|
|-------------------------------------------------------|
|
|-------------------|                PM------------|
|  E    S       S S S       E +E     E   S  S   S   S
|-------------------------------------------------------|
|-------------------------------------------------------|
|-------------------------------------------------------|
|-------------------------------------------------------|
|-------------------------------------------------------|
|--2----2-------2-3-2-------2-(2)----2---5--3---2---0---|


  D5                                         F#5
                    ~~~~~~~~~~~~~
   Q         +E     E       +H                S  S  S  S  S  S  S  S  S   S  S  S  S  S  S  S
|------------------------------------------|--------------------------------------------------|
|-17b19r====(17)---17pb19==(17)r-----------|-----------------------------------15-17p15----15-|
|------------------------------------------|-------14-16-18p16-14h16-14h=16-18----------18----|
|------------------------------------------|-16h18--------------------------------------------|
|------------------------------------------|--------------------------------------------------|
|------------------------------------------|--------------------------------------------------|
|
|  W                                          W
|------------------------------------------|--------------------------------------------------|
|------------------------------------------|--------------------------------------------------|
|------------------------------------------|--------------------------------------------------|
|--7---------------------------------------|-11-----------------------------------------------|
|--5---------------------------------------|--9-----------------------------------------------|
|------------------------------------------|--------------------------------------------------|
|
|  PM------------|               PM-------------------------|                PM----------------
|  E    S S   S  S  E       +E   E S S S S    E     S  S  S  S  E    +E      E     S  S  S  S
|------------------------------------------|--------------------------------------------------|
|------------------------------------------|--------------------------------------------------|
|------------------------------------------|--------------------------------------------------|
|------------------------------------------|--------------------------------------------------|
|------------------------------------------|--------------------------------------------------|
|--2----2-2---3--2--2-------(2)--2-5-3-2-0-|--2-----2--2--3--2--2----(2)-----2-----5--3--2--0-|


  E5
   S  S  S  S  S  S   S  S  Q        +S   +S   E
|-------------16h17-/19h21-21b24====(21)r(21)-21-----|
|----15-17h19----------------------------------------|
|-18-------------------------------------------------|
|----------------------------------------------------|
|----------------------------------------------------|
|----------------------------------------------------|
|
|  W
|----------------------------------------------------|
|----------------------------------------------------|
|----------------------------------------------------|
|--9-------------------------------------------------|
|--7-------------------------------------------------|
|----------------------------------------------------|
|
|----------------|                PM-------------|
|  E     S  S  S  S   E    +E     E   S    S   S S
|----------------------------------------------------|
|----------------------------------------------------|
|----------------------------------------------------|
|----------------------------------------------------|
|----------------------------------------------------|
|--2-----2--2--3--2---2----(2)----2---5----3---2-0---|


  D5
   S  S  S  S  S  S  S  S  S   S  S  S  S  S  S  S
|-19h20p19----19-----------------------------------|
|----------22----22-19----22p=19s18-21p18----21p18s|
|----------------------21-----------------20-------|
|--------------------------------------------------|
|--------------------------------------------------|
|--------------------------------------------------|
|
|  W
|--------------------------------------------------|
|--------------------------------------------------|
|--------------------------------------------------|
|--7-----------------------------------------------|
|--5-----------------------------------------------|
|--------------------------------------------------|
|
|  PM------------|                PM----------------
|  E     S  S  S  S  E    +E      E     S  S  S  S
|--------------------------------------------------|
|--------------------------------------------------|
|--------------------------------------------------|
|--------------------------------------------------|
|--------------------------------------------------|
|--2-----2--2--3--2--2----(2)-----2-----5--3--2--0-|


  C#5                                  A5            F#5
                                                      ~~
   S  S  S  S  S  S  S  S  S   S  S  S  S  S  S  S    W
|--------------------------------------------------|----------------------------|
|-17h20p17----20-17s14h17p14-----------------------|----------------------------|
|----------19-----------------17p16p14-16p14-------|----------------------------|
|--------------------------------------------16-14-|-16-------------------------|
|--------------------------------------------------|----------------------------|
|--------------------------------------------------|----------------------------|
|
|  H                      +Q            Q             W
|--------------------------------------------------|----------------------------|
|--------------------------------------------------|----------------------------|
|--------------------------------------------------|----------------------------|
|--6----------------------(6)-----------2----------|----------------------------|
|--4----------------------(4)-----------0----------|--4-------------------------|
|--------------------------------------------------|--2-------------------------|
|
|----------------|                PM--------------------------|       PM------|
|  E     S  S  S  S  E    +E      E     S  S  S  S    E S S S S E +E  E S S S S
|--------------------------------------------------|----------------------------|
|--------------------------------------------------|----------------------------|
|--------------------------------------------------|----------------------------|
|--------------------------------------------------|----------------------------|
|--------------------------------------------------|----------------------------|
|--2-----2--2--3--2--2----(2)-----2-----5--3--2--0-|--2-2-2-3-2-2-(2)-2-5-3-2-0-|


    ~~~~~~~~~~~~~~~~~~~~~~~~~~~~
   +W
|------------------------------|
|------------------------------|
|------------------------------|
|-(16)-------------------------|
|------------------------------|
|------------------------------|
|
|  +W
|------------------------------|
|------------------------------|
|------------------------------|
|------------------------------|
|--(4)-------------------------|
|--(2)-------------------------|
|
|   PM-------|       PM---------
|   E  S S S S E +E  E S S S S
|------------------------------|
|------------------------------|
|------------------------------|
|------------------------------|
|------------------------------|
|---2--2-2-3-2-2-(2)-2-5-3-2-0-|


                             D.S.S. al Dbl. Coda
                                 F#5 E5    F#5
 ~~~~~~
   +W                             W
|------------------------------|-------------------||
|------------------------------|-------------------||
|------------------------------|-------------------||
|-(16)-------------------------|-------------------||
|------------------------------|-------------------||
|------------------------------|-------------------||
|
|  +W                             E. S +E   E H
|------------------------------|-------------------||
|------------------------------|-------------------||
|------------------------------|-------------------||
|------------------------------|-11--9-(9)-11------||
|--(4)-------------------------|--9--7-(7)--9------||
|--(2)-------------------------|-------------------||
|
|------------|       PM------|
|   E  S S S S E +E  E S S S S    E. S +E   E H
|------------------------------|-------------------||
|------------------------------|-------------------||
|------------------------------|-------------------||
|------------------------------|-11--9-(9)-11------||
|------------------------------|--9--7-(7)--9------||
|---2--2-2-3-2-2-(2)-2-5-3-2-0-|-------------------||


   3rd Chorus Ending
    &&
    C5 G5    Eb5   Bb5       C5 G5    Eb5   Bb5
    Gtrs I, II
    E. S +E  E +S  E. Q      E. S +E  E +S  E. +Q
||------------------------||-------------------------||
||o----------------------o||-------------------------||
||------------------------||-------------------------||
||--5--------8-(8)--------||-5--------8-(8)----------||
||o-3--5-(5)-6-(6)-8-----o||-3--5-(5)-6-(6)-8--(8)\--||
||-----3-(3)-------6------||----3-(3)-------6--(6)\--||


 Interlude
  Q=130
  E E E E +E  E +E  E   E E E E +E  E +E  E
|---------------------|---------------------|
|-------2-(2)---------|-------2-(2)---------|
|-------------4-(4)---|-------------4-(4)---|
|-----4---------------|-----4---------------|
|---2-----------------|---2-----------------|
|-2-----------------2-|-3-----------------3-|


  E E E E +E  E +E  E   E E E E +E  E +E  E
|---------------------|----------------------|
|-------2-(2)---------|-------2-(2)----------|
|-------------4-(4)---|-------------4-(4)----|
|-----4---------------|-----4----------------|
|---2-----------------|---2------------------|
|-4-----------------4-|-3-----------------3--|


  E E E E +E  E +E  E   E E E E +E  E +E  E
|---------------------|---------------------|
|-------2-(2)---------|-------2-(2)---------|
|-------------4-(4)---|-------------4-(4)---|
|-----4---------------|-----4---------------|
|---2-----------------|---2-----------------|
|-2-----------------2-|-3-----------------3-|


  E E E E +E  E +E  E   E E E E +E  E +E  E
|---------------------|----------------------|
|-------2-(2)---------|-------2-(2)-4-(4)----|
|-------------4-(4)---|-----4----------------|
|-----4---------------|---4------------------|
|---2-----------------|-0-----------------0--|
|-4-----------------4-|----------------------|


  E E E E +E  E +E  E   E E E E +E  E +E  E
|---------------------|---------------------|
|-------2-(2)---------|-------2-(2)---------|
|-------------4-(4)---|-------------4-(4)---|
|-----4---------------|-----4---------------|
|---2-----------------|---2-----------------|
|-2-----------------2-|-3-----------------3-|


                        N.C.
                        |3| |3| |3| |3|
  E E E E +E  E +E  E   E Q Q E E Q Q E
|---------------------|------------------|
|-------2-(2)---------|------------------|
|-------------4-(4)---|------------------|
|-----4---------------|------------------|
|---2-----------------|---2-2-2---4-4-4--|
|-4-----------------4-|-3-------3--------|


  H=H
  F#5               G5                G#5               A5
  PM------------------------------------------------------------------|
  E E E E E E E E   E E E E E E E E   E E E E E E E E   E E E E E E E E
|-----------------|-----------------|-----------------|------------------||
|-----------------|-----------------|-----------------|------------------||
|-----------------|-----------------|-----------------|------------------||
|-----------------|-----------------|-----------------|------------------||
|-4-4-4-4-4-4-4-4-|-5-5-5-5-5-5-5-5-|-6-6-6-6-6-6-6-6-|-7-7-7-7-7-7-7-7--||
|-2-2-2-2-2-2-2-2-|-3-3-3-3-3-3-3-3-|-4-4-4-4-4-4-4-4-|-5-5-5-5-5-5-5-5--||


   Out-Chorus
    Q=160
    F#5
    Gtr II
     W
||-----------------------------|
||o----------------------------|
||-----------------------------|
||--11-------------------------|
||o--9-------------------------|
||-----------------------------|
|
|   Gtr I
|    PM------|       PM---------
|    E S S S S E +E  E S S S S
||-----------------------------|
||o----------------------------|
||-----------------------------|
||-----------------------------|
||o----------------------------|
||---2-2-2-3-2-2-(2)-2-5-3-2-0-|


  D5                            F#5
  W                              W
|----------------------------||-----------------------------|
|---------------------------o||-----------------------------|
|----------------------------||-----------------------------|
|-7--------------------------||-11--------------------------|
|-5-------------------------o||--9--------------------------|
|----------------------------||-----------------------------|
|
|---------|       PM---------------------|       PM------|
| E S S S S E +E  E S S S S      E S S S S E +E  E S S S S
|----------------------------||-----------------------------|
|---------------------------o||-----------------------------|
|----------------------------||-----------------------------|
|----------------------------||-----------------------------|
|---------------------------o||-----------------------------|
|-2-2-2-3-2-2-(2)-2-5-3-2-0--||--2-2-2-3-2-2-(2)-2-5-3-2-0--|


  E5
  W
|---------------------------|
|---------------------------|
|---------------------------|
|-9-------------------------|
|-7-------------------------|
|---------------------------|
|
| PM------|       PM---------
| E S S S S E +E  E S S S S
|---------------------------|
|---------------------------|
|---------------------------|
|---------------------------|
|---------------------------|
|-2-2-2-3-2-2-(2)-2-5-3-2-0-|


  D5                          C#5               A5
  W                           H           +Q    Q
|---------------------------|---------------------------|
|---------------------------|---------------------------|
|---------------------------|---------------------------|
|-7-------------------------|-6-----------(6)---2-------|
|-5-------------------------|-4-----------(4)---0-------|
|---------------------------|---------------------------|
|
|---------|       PM------------------|       PM------|
| E S S S S E +E  E S S S S   E S S S S E +E  E S S S S
|---------------------------|---------------------------|
|---------------------------|---------------------------|
|---------------------------|---------------------------|
|---------------------------|---------------------------|
|---------------------------|---------------------------|
|-2-2-2-3-2-2-(2)-2-5-3-2-0-|-2-2-2-3-2-2-(2)-2-5-3-2-0-|


  F#5
  W
|---------------------------|
|---------------------------|
|---------------------------|
|---------------------------|
|-4-------------------------|
|-2-------------------------|
|
| PM------|       PM---------
| E S S S S E +E  E S S S S
|---------------------------|
|---------------------------|
|---------------------------|
|---------------------------|
|---------------------------|
|-2-2-2-3-2-2-(2)-2-5-3-2-0-|


                                    F#5E5    F#5
    +W                              E. S +E  E H
||-------------------------------||-----------------*|
||o-----------------------------o||-----------------*|
||-------------------------------||-----------------*|
||-------------------------------||-4--2-(2)-4------*|
||o-(4)-------------------------o||-4--2-(2)-4------*|
||--(2)--------------------------||-2--0-(0)-2------*|
|
|-------------|       PM------|
|    E  S S S S E +E  E S S S S     E. S +E  E H
||-------------------------------||-----------------*|
||o-----------------------------o||-----------------*|
||-------------------------------||-----------------*|
||-------------------------------||-4--2-(2)-4------*|
||o-----------------------------o||-4--2-(2)-4------*|
||---2--2-2-3-2-2-(2)-2-5-3-2-0--||-2--0-(0)-2------*|



Duration Legend
---------------
W - whole; H - half; Q - quarter; E - 8th; S - 16th; T - 32nd; X - 64th; a - acciaccatura
+ - note tied to previous; . - note dotted; .. - note double dotted
Uncapitalized letters represent notes that are staccato (1/2 duration)
Irregular groupings are notated above the duration line
Duration letters will always appear directly above the note/fret number it represents the
duration for.  Duration letters with no fret number below them represent rests.  Multi-
bar rests are notated in the form Wxn, where n is the number of bars to rest for.  Low
melody durations appear below the staff

Tablature Legend
----------------
 h   - hammer-on
 p   - pull-off
 b   - bend
 pb  - pre-bend
 r   - bend release (if no number after the r, then release immediately)
 /\  - slide into or out of (from/to "nowhere")
 s   - legato slide
 S   - shift slide
 - natural harmonic
[n]  - artificial harmonic
n(n) - tapped harmonic
 ~   - vibrato
 tr  - trill
 T   - tap
 TP  - trem. picking
 PM  - palm muting
\n/  - tremolo bar dip; n = amount to dip
 \n  - tremolo bar down
 n/  - tremolo bar up
/n\  - tremolo bar inverted dip
 =   - hold bend; also acts as connecting device for hammers/pulls
 <> - volume swell (louder/softer)
 x   - on rhythm slash represents muted slash
 o   - on rhythm slash represents single note slash

Misc Legend
-----------
 |  - bar
||  - double bar
||o - repeat start
o|| - repeat end
*|  - double bar (ending)
 :  - bar (freetime)
 $  - Segno
 &  - Coda
Tempo markers -  = BPM(8/16=s8/s16), where s8 = swing 8ths, s16 = swing 16ths

Tap to rate this tab
 
# A B C D E F G H I J K L M N O P Q R S T U V W X Y Z