Song name
# A B C D E F G H I J K L M N O P Q R S T U V W X Y Z

Megadeth - Good Mourning Black Friday tab

Help us improve GuitareTab! Take a short survey!
#----------------------------------PLEASE NOTE---------------------------------#
#This file is the author's own work and represents their interpretation of the #
#song. You may only use this file for private study, scholarship, or research. #
#------------------------------------------------------------------------------#

GOOD MOURNING/BLACK FRIDAY
As recorded by Megadeth
(From the 1986 Album PEACE SELLS...BUT WHO'S BUYING?)

Transcribed by Casey Starnes
	

Words and Music by Dave Mustaine

Gtr I (E A D G B E) - 'Acoustic '
Gtr II (E A D G B E) - 'Poland'
Gtr III (E A D G B E) - 'Mustaine'
Gtr IV (E A D G B E) - 'Overdub'

 Intro
  Q=115
  (G#m)
 4/4
  Gtr I
  E E E E E E E E   E E E E E E E S S   E E E E E E E S S
|-----------0-----|-----------0-------|-----------0-------|
|-----9---------9-|-----9-------------|-----9-------------|
|---8---8-----8---|---8---8-8---8-----|---8---8-8---8-----|
|-6-------6-------|-9-------------6---|-------------------|
|-----------------|-----------------9-|-7-------------7-9-|
|-----------------|-------------------|-------------------|


  E  E E  E E E  E E    E E  E  E E  E  E  E
|--------------------|--------------------11--|
|-----------8--------|------11---------11-----|
|-------------8------|----9-------9-12--------|
|------8--------11-9-|-11------11-------------|
|---10---10----------|------------------------|
|-9------------------|------------------------|


  (G#m)
                   3/4            4/4
  Gtr I
  E E E E E E E E   E  E E E E E   E E E E E E E E
|---------0-------|--------0-----|---------0-------|
|-----9-------9---|------9---9---|-----9-------9---|
|---8---8---8-----|----8-------8-|---8---8---8-----|
|-6-------------6-|-8------------|-9-------------9-|
|-----------------|--------------|-----------------|
|-----------------|--------------|-----------------|
|
| Gtr II
| W                 H.             W
|-----------------|--------------|-----------------|
|-----------------|--------------|-----------------|
|-----------------|--------------|-----------------|
|-----------------|--------------|-----------------|
|-----------------|--------------|-----------------|
|-----------------|--------------|-----------------|


                        2/4
   E  E E  E  E E  E E     E  E  E E
|----------------------|-------------|
|-------9-------9------|---9-------8-|
|-----8-------8------8-|---------8---|
|-11-------9-------8---|------6------|
|----------------------|-------------|
|----------------------|-------------|
|
|  Q.      Q.      Q      +E  Q.
|----------------------|-------------|
|-14------12------11---|-(11)-9------|
|----------------------|-------------|
|----------------------|-------------|
|----------------------|-------------|
|----------------------|-------------|


  (G#m)
 4/4                 3/4               4/4
  E E  E  E E E E E    E  E E E  E  E   E  E E E E E E  E
|-----------0-------|---------0-------|----------0-----------|
|------9--------9---|-------9----9----|------9-------9-------|
|---8-----8---8-----|-----8---------8-|----8---8---8---------|
|-6---------------6-|--8--------------|-9---------------9----|
|-------------------|-----------------|----------------------|
|-------------------|-----------------|----------------------|
|
|                                \1
| E E +H.             +H        +Q      H.           E  S  S
|-------------------|-----------------|----------------------|
|-------------------|-----------------|-------------------17-|
|-9-8-(8)-----------|-(8)-------(8)---|----------------18----|
|-------------------|-----------------|----------------------|
|-------------------|-----------------|----------------------|
|-------------------|-----------------|----------------------|


                              2/4
   E      E  E E E   E   E E     E   E  E E
|----------------------------|----------------|
|------------9-------9-------|---9--------8---|
|---------8------8---------8-|----------8-----|
|-11-----------9---------8---|-------6--------|
|----------------------------|----------------|
|----------------------------|----------------|
|
|  S  S  +H         +E   Q      +E   Q.
|-16-19-(19)-------(19)-18---|-(18)-16--------|
|----------------------------|----------------|
|----------------------------|----------------|
|----------------------------|----------------|
|----------------------------|----------------|
|----------------------------|----------------|


  (G#m)
 4/4                          3/4
   E     E   E  E   E  E E E     E   E E E E   E
|-------------------0--------|-----------0----------|
|------------9-----------9---|---------9---9--------|
|--------8------8------8-----|-------8---------8----|
|--6-----------------------6-|---8------------------|
|----------------------------|----------------------|
|----------------------------|----------------------|
|
|  \0.5/                                       \0.5
|                   ~~~~
|  Q        +Q     +H           +E   H        +E
|-16-------(16)---(16)-------|-(16)-14-------(14)---|
|----------------------------|----------------------|
|----------------------------|----------------------|
|----------------------------|----------------------|
|----------------------------|----------------------|
|----------------------------|----------------------|


 4/4                                      2/4
  E E E E E E E E    E  E E  E  E E  E E     E  E  E E
|---------0-------|----------------------|--------------|
|-----9-------9---|-------9-------9------|---9-------8--|
|---8---8---8-----|-----8-------8------8-|---------8----|
|-9-------------9-|-11-------9-------8---|------6-------|
|-----------------|----------------------|--------------|
|-----------------|----------------------|--------------|
|
| W                  Q.      Q.      Q      +E  Q.
|-----------------|----------------------|--------------|
|-----------------|-14------12------11---|-(11)-9-------|
|-----------------|----------------------|--------------|
|-----------------|----------------------|--------------|
|-----------------|----------------------|--------------|
|-----------------|----------------------|--------------|


  (G#m)
 4/4                     3/4
  E E  E E E   E E  E     E  E E E E E
|----------0------------|--------0-----|
|------9---------9------|------9---9---|
|---8----8-----8--------|----8-------8-|
|-6-----------------6---|-8------------|
|-----------------------|--------------|
|-----------------------|--------------|
|
|          \1/
| E Q.     Q.       S S   H.
|-----------------------|--------------|
|-----------------------|--------------|
|-9p8------8------------|--------------|
|------------------11p9-|-8------------|
|-----------------------|--------------|
|-----------------------|--------------|


 4/4                                          2/4
   E   E  E  E E E E E     E  E E  E E E E E     E  E E E
|--------------0-------|---------------------|------------|
|---------9--------9---|--------9------9-----|---9------8-|
|------8-----8---8-----|------8------8-----8-|--------8---|
|--9-----------------9-|--11------11-----9---|------8-----|
|----------------------|---------------------|------------|
|----------------------|---------------------|------------|
|
|                          <
|      \1
| +E  +E  H.               W                    +H
|----------------------|---------------------|------------|
|----------------------|-[14]----------------|-(14)-------|
|----------------------|---------------------|------------|
|-(8)-(8)--------------|---------------------|------------|
|----------------------|---------------------|------------|
|----------------------|---------------------|------------|


  (Badd6)                (D#)
 4/4
   E  E E  E  E E E  E    E  E E  E  E  E  E E
|------------11-9-7----|-------------7-----9---|
|-----7----9---------9-|----------8----11----8-|
|-------8--------------|-----8-----------------|
|--9-------------------|--8----8---------------|
|----------------------|-----------------------|
|----------------------|-----------------------|
|
|  Q.      H         E    Q.      Q.       Q
|----------------------|-----------------------|
|---------16-----------|-17--------------------|
|-16----------------16-|---------15-------16---|
|----------------------|-----------------------|
|----------------------|-----------------------|
|----------------------|-----------------------|


  (Badd6)                     (D#)
   E E E E   E   E  E     E    E E  E     E     E   E E  E
|-----------11---9--7-------|-------------------7-----9----||
|----7---9----------------9-|-------------8--------11----8-||
|------8--------------------|----8-------------------------||
|--9------------------------|--8----8----------------------||
|---------------------------|------------------------------||
|---------------------------|------------------------------||
|
|                                               \1
|  H        +E   E  S  S  E    Q    S  S  S  S  Q.       E
|-14-------(14)-------------|------------------------------||
|---------------17-16p14----|------------------------------||
|------------------------16-|-15------------------------12-||
|---------------------------|------14p13-------------------||
|---------------------------|------------16p14-13----------||
|---------------------------|------------------------------||


  (Em)                         (B7)
                   |-3-|                       |-3-|
    E  E E E E     S S S E E    E  E E  E E    S S S E E
|--------------------------7-|-------7-------------------|
|------------8-----7h8p7-----|---------10------7h8p7-----|
|---9------9-------------9---|-----8-----------------9-8-|
|--------9-------------------|--9---------9--------------|
|------7---------------------|---------------------------|
|----------------------------|---------------------------|
|
|            \0.5/
|  +H        H                 +H         H
|----------------------------|---------------------------|
|----------------------------|---------------------------|
|-(12)-------9---------------|-(9)--------4pb7-----------|
|----------------------------|---------------------------|
|----------------------------|---------------------------|
|----------------------------|---------------------------|


  C                          B
   E      E E  E E  E E  E   E  E E E E  E  T   T E.
|--------------------------|--------------------------|
|--8-------------8---------|-7------7-8-10-(8)h10p8\--|
|--9--------9-11---11-9----|-8--8-9-------------------|
|-10-----10-------------10-|-9------------------------|
|--------------------------|--------------------------|
|--------------------------|--------------------------|
|
| +H             H           H.             Q
|--------------------------|--------------------------|
|--------------------------|--------------------------|
|-(4)pb7r========4---------|-2--------------7\--------|
|--------------------------|--------------------------|
|--------------------------|--------------------------|
|--------------------------|--------------------------|


                                                                      Q
  (Em)                              (B7)
             |--3---|                                       |-3-|
  E E E E E  S S    S  E       E      E  E E  E        E    S S S E E
|------------------------------7--|--------7--------------------------|
|---------8--7h8p===7-------------|----------10-------------7h8p7-----|
|-9-----9--------------9----------|------8------------------------9-8-|
|-----9---------------------------|---9----------------9--------------|
|---7-----------------------------|-----------------------------------|
|---------------------------------|-----------------------------------|
|
|                      \0.5____/
|                                             |--3--|
| H       E.      S    E      +E     +Q.      S  S  S  H
|---------------------------------|-----------------------------------|
|---------------------17-----(17)-|-(17)-----17p15p13-----------------|
|----------------16---------------|-------------------16b17-----------|
|---------------------------------|-----------------------------------|
|---------------------------------|-----------------------------------|
|---------------------------------|-----------------------------------|


 =110
  C                                     B
    E   E E  E            E   E  E  E    E  E  E  E  E  E  E  E
|-------------------------------------|----------------------11---||
|---8---------------------8-----------|--7--------7--8-10-12------||
|---9-----9-11---------------11--9----|--8--8--9------------------||
|--10--10--------------------------10-|--9------------------------||
|-------------------------------------|---------------------------||
|-------------------------------------|---------------------------||
|
|  +Q.       T  T  T  T  +E   Q.         E  E  E  E  E  E  E  E
|-------------------------------------|---------------------------||
|-------------------------------------|----------------------16---||
|-(16)------17p16p14------------------|-------------------16------||
|--------------------17-(17)-16-------|-16-------16-17-19---------||
|-------------------------------------|----18-19------------------||
|-------------------------------------|---------------------------||


 Guitar Solo 1
  Q.=114
     E5
 6/8            12/8
  Gtr I          Gtrs I, II
                  PM----------------------------------------
   a  H     Q     E  E E E E E E E   E  E  E       E
|-11h12--------|---------0---0----------0----------0-------|
|--------------|-------0---0---------0-----0---------------|
|--------------|-----4-----------4-------------------------|
|--------------|--2------------2---------------------------|
|--------------|-------------------------------------------|
|--------------|-------------------------------------------|
|
| Gtr II         Gtr III
|                                          |------5------|
|  a  H     Q     W                 +Q     S  S  S    S  S
|--------------|-19----------------(19)--------------15-17-|
|-16h17--------|--------------------------15-17-19---------|
|--------------|-------------------------------------------|
|--------------|-------------------------------------------|
|--------------|-------------------------------------------|
|--------------|-------------------------------------------|
|
| Gtr IV
|     H.          W.
|--------------|-------------------------------------------|
|--------------|-------------------------------------------|
|--------------|-------------------------------------------|
|-----2--------|--2----------------------------------------|
|-----2--------|--2----------------------------------------|
|-----0--------|--0----------------------------------------|


  Esus2
 --------------------------------|
   E  E E E  E  E  E E E E  E     E
|---------0-----0--------0--------0------|
|-------0----0---------0----0------------|
|-----4--------------4-------------------|
|--4---------------4---------------------|
|----------------------------------------|
|----------------------------------------|
|
|  H         E  E  H        S  S  S  S
|-19--------19-19-19----------------14---|
|--------------------------14-15-17------|
|----------------------------------------|
|----------------------------------------|
|----------------------------------------|
|----------------------------------------|
|
|  W.
|----------------------------------------|
|----------------------------------------|
|----------------------------------------|
|--4-------------------------------------|
|--2-------------------------------------|
|--0-------------------------------------|


  Em
   PM----------------------------------------------------------------------------
   E        E       E      E     E     E     E     E     E     E     E     E
|--------------------------0-----------0-----------------------0-----------0----|
|-------------------0------------0-----------------------0-----------0----------|
|-----------4--------------------------------------4----------------------------|
|--5-----------------------------------------5----------------------------------|
|-------------------------------------------------------------------------------|
|-------------------------------------------------------------------------------|
|
|  T   S  S    S  S    S.  S  S  S  S  S  S  S  S  S  S  S  S  S  S  S  S  S  S
|-14--15-17---15-14---15--14----------------------------------------------------|
|----------------------------17-15-14-15-17-15-17-15-14-------------------------|
|-------------------------------------------------------16-14-14-12-14-12-14-16-|
|-------------------------------------------------------------------------------|
|-------------------------------------------------------------------------------|
|-------------------------------------------------------------------------------|
|
|  W.
|-------------------------------------------------------------------------------|
|-------------------------------------------------------------------------------|
|-------------------------------------------------------------------------------|
|--5----------------------------------------------------------------------------|
|--2----------------------------------------------------------------------------|
|--0----------------------------------------------------------------------------|


  N.C.
 ----------------------------------------------|
   E     E    E     E     E     E     E  E E E Q
|--------0----------0-----------0--------0---0------|
|---------------------------------------------------|
|---------------------------------------------------|
|--7----------5-----------4-----------5----4--------|
|----------------------------------------------5----|
|---------------------------------------------------|
|
|                         PM------|
|  S  S  S  E    S  S  S  S  S  S  S  H.
|---------------------------------------------------|
|---------------------------------------------------|
|-14-12-14-12---------------------------------------|
|---------------16-14-12----------------------------|
|------------------------15-14-12----12-------------|
|---------------------------------15-10-------------|
|
|                                     ~~~~~~~~~~~
|  Q          Q           Q           Q    Q   Q
|---------------------------------------------------|
|---------------------------------------------------|
|---------------------------------------------------|
|--7----------5-----------4----------[5]---4--------|
|----------------------------------------------5----|
|---------------------------------------------------|


  E5
   PM------------------------
   E  E E E E E E E E E E E
|---------0---0-------0---0-|
|-------0---0-------0---0---|
|-----4-----------4---------|
|--2------------2-----------|
|---------------------------|
|---------------------------|
|
|  W.
|---------------------------|
|---------------------------|
|---------------------------|
|---------------------------|
|-14------------------------|
|-12------------------------|
|
|  W.
|---------------------------|
|---------------------------|
|---------------------------|
|--2------------------------|
|--2------------------------|
|--0------------------------|


  Esus2
 -------------------------------------------------------------|
   E      E     E     E     E     E     E  E  E  E    E       E
|---------------------0-----------0--------------0------------0----|
|---------------0-----------0-----------------0-------0------------|
|---------4--------------------------------4-----------------------|
|--2------------------------------------2--------------------------|
|------------------------------------------------------------------|
|------------------------------------------------------------------|
|
|                                                |------5:3------|
|  S   S  S  S  S  S  S  S  S  S  S  S  E  E  E  E  E    E  E    E
|------------------------------------------------------------------|
|------------------------------------------------------------------|
|------------------------------------------------------------------|
|-----------------10----------------10-12-14-12-14h15p==14-12---14-|
|-----------12-14----14-12-10-12-14--------------------------------|
|-10--12-14--------------------------------------------------------|
|
|  W.
|------------------------------------------------------------------|
|------------------------------------------------------------------|
|------------------------------------------------------------------|
|--4---------------------------------------------------------------|
|--2---------------------------------------------------------------|
|--0---------------------------------------------------------------|


  C5                                    B5
   H                       E       E     H                     E     E
|-------------------------------------------------------------------------|
|-------------------------------------------------------------------------|
|-------------------------------------------------------------------------|
|--------------------------2-------0---------------------------2-----0----|
|--3-------------------------------------2--------------------------------|
|-------------------------------------------------------------------------|
|
|                     |------5:3------|  |----5:3-----|
|  S   S  S  S  S  S  E  E    E  E    E  E   E  E  E  E  S  S  S  S  S  S
|-------------------------------------------------------------------------|
|-------------------------------------------15-17-18-17-15-16-15-16-15-14-|
|-----------12-14-12----12------14---16-17--------------------------------|
|-12--14-16----------16------16-------------------------------------------|
|-------------------------------------------------------------------------|
|-------------------------------------------------------------------------|
|
|  H.                                    H.
|-------------------------------------------------------------------------|
|-------------------------------------------------------------------------|
|-------------------------------------------------------------------------|
|--5-------------------------------------4--------------------------------|
|--3-------------------------------------2--------------------------------|
|-------------------------------------------------------------------------|


  C               D               Em              F#m
   Q.              Q.              Q.              Q.
|---------------------------------------------------------------|
|---------------------------------------------------------------|
|--0---------------2---------------4---------------6------------|
|--2---------------4---------------5---------------7------------|
|---------------------------------------------------------------|
|---------------------------------------------------------------|
|
|  |----5:3-----|  |----5:3-----|  |----5:3-----|
|  E   E  E  E  E  E   E  E  E  E  E   E  E  E  E  S   S  S  E.
|-----------14-17-----------15-20-----------17-22-----------19--|
|-13--15-17-------15--17-19-------17--19-20-------19--20-22-----|
|---------------------------------------------------------------|
|---------------------------------------------------------------|
|---------------------------------------------------------------|
|---------------------------------------------------------------|
|
|  Q.              Q.              Q.              Q.
|---------------------------------------------------------------|
|---------------------------------------------------------------|
|---------------------------------------------------------------|
|--2---------------4---------------5---------------7------------|
|--3---------------5---------------7---------------9------------|
|---------------------------------------------------------------|


  E5                                    Esus2
   PM----------------------------------------------------------------------------
   E   E  E  E  E  E  E  E  E  E  E E    E   E  E  E  E  E  E  E  E  E     E  E
|------------0-----0-----------0----0-|------------0-----0-----------0--------0-|
|---------0-----0-----------0-----0---|---------0-----0-----------0--------0----|
|------4-----------------4------------|------4-----------------4----------------|
|--2------------------2---------------|--4------------------4-------------------|
|-------------------------------------|-----------------------------------------|
|-------------------------------------|-----------------------------------------|
|
|  E   E  E  E  E  E  E  E  E  E  E E    E   E  E  E  E  E  E  E  E  E     E  E
|-15--17-14-15----14------------------|-15--17-14-15----14----------17b19r17-14-|
|--------------17----15-17-14-15------|--------------17----15-17-14-------------|
|--------------------------------14---|-----------------------------------------|
|-----------------------------------x-|-----------------------------------------|
|-------------------------------------|-----------------------------------------|
|-------------------------------------|-----------------------------------------|
|
|  W.                                    W.
|-------------------------------------|-----------------------------------------|
|-------------------------------------|-----------------------------------------|
|-------------------------------------|-----------------------------------------|
|--2----------------------------------|--4--------------------------------------|
|--2----------------------------------|--2--------------------------------------|
|--0----------------------------------|--0--------------------------------------|


  Em
 -----------------------------------|
   E   E  E  E  E  E  E  E  E  E  E  E
|------------0-----0-----------0-----0--|
|---------0-----0-----------0-----0-----|
|------4-----------------4--------------|
|--5------------------5-----------------|
|---------------------------------------|
|---------------------------------------|
|
|  E   E  E  E  E  E  E  E  E  E  E  E
|-15--17-14-15----14--------------------|
|--------------17----15-17-14-15----15--|
|--------------------------------14-----|
|---------------------------------------|
|---------------------------------------|
|---------------------------------------|
|
|  W.
|---------------------------------------|
|---------------------------------------|
|---------------------------------------|
|--5------------------------------------|
|--2------------------------------------|
|--0------------------------------------|


  N.C.
   PM-----------------------------------
   E   E  E  E  E  E  E   E  E  E  E E
|------0-----0-----0------0-----0----0-|
|--------------------------------------|
|--------------------------------------|
|--7------5-----4-----5------4---------|
|----------------------------------5---|
|--------------------------------------|
|
|  E   E  E  E  E  E  E   E  E  E  Q
|--------------------------------------|
|-----15----15----15-----15----15------|
|-14-----12----11----12-----11---------|
|---------------------------------12---|
|--------------------------------------|
|--------------------------------------|
|
|                     ~~~~~~~~~~~~~~~
|  H.                 Q      Q     Q
|--------------------------------------|
|--------------------------------------|
|--------------------------------------|
|--------------------[5]-----4---------|
|----------------------------------5---|
|--------------------------------------|


  E5                          D5/E
 ----------------------------------------------------------|
   E  E E E E E E E E E E E     E  E E E E E E E   E  E  E  E
|---------0---0-------0---0-|----------0---0----------0-----0--|
|-------0---0-------0---0---|--------0---0---------0-----0-----|
|-----4-----------4---------|------4-----------4---------------|
|--2------------2-----------|---2------------2-----------------|
|---------------------------|----------------------------------|
|---------------------------|----------------------------------|
|
|  W.                           W                 +Q     E  E
|---------------------------|----------------------------------|
|---------------------------|----------------------------------|
|---------------------------|----------------------------------|
|---------------------------|----------------------------------|
|---------------------------|-(12)-----------------------------|
|-12------------------------|--10----------------(10)---12-10--|
|
|  W.                           W.
|---------------------------|----------------------------------|
|---------------------------|----------------------------------|
|---------------------------|----------------------------------|
|--2------------------------|---7------------------------------|
|--2------------------------|---5------------------------------|
|--0------------------------|---0------------------------------|


  C5            B5              C    D    Em   F#m
  Gtr I                         Gtrs I, II
  PM-----------------|
  E  E H        E  E H          Q.   Q.   Q.   Q.
|------0-------------0--------|---------------------||
|-----------------------------|---------------------||
|----4-------------4----------|-0----2----4----6----||
|-2-------------2-------------|-2----4----5----7----||
|-----------------------------|---------------------||
|-----------------------------|---------------------||
|
| Gtrs II, III                  Gtr III
| H        E  E H        E  E   Q.   Q.   Q.   Q.
|-----------------------------|---------------------||
|-----------------------------|---------------------||
|-----------------------------|---------------------||
|-----------------------------|---------------------||
|-----------------------------|---------------------||
|-8-------12-10-7-------12-10-|-8----7----8----9----||
|
| Gtr IV
| H.            H.              Q.   Q.   Q.   Q.
|-----------------------------|---------------------||
|-----------------------------|---------------------||
|-----------------------------|---------------------||
|-5-------------4-------------|-2----4----5----7----||
|-3-------------2-------------|-3----5----7----9----||
|-----------------------------|---------------------||


 Pre-Verse
  N.C.
  Gtr III
  PM----------------------------------------------------
  E E E E  E   E E E E E E E   E E E E E E E E E E E E
|-------0------0-------0---0-|-------0---0---0---0-----|
|-----0----0---------0---0---|-----0---0---------------|
|---4--------------4---------|---4---------------------|
|-2--------------4-----------|-5-----------7---5---4-5-|
|----------------------------|-------------------------|
|----------------------------|-------------------------|
|
| Gtr IV
| H       +H         H         W               H
|----------------------------|-------------------------|
|----------------------------|-------------------------|
|----------------------------|-------------------------|
|-9-------(9)\---------------|-------------------------|
|-7-------(7)\---------------|-------------------------|
|----------------------------|-------------------------|


 -------------------------------------------------|
  E E E E E E E E E E E E   E E E E E E E E E E E E
|-------0---0-------0---0-|-------0---0---0---0--------||
|-----0---0-------0---0---|-----0---0------------------||
|---4-----------4---------|---4------------------------||
|-2-----------4-----------|-5-----------7---5---4-5----||
|-------------------------|----------------------------||
|-------------------------|----------------------------||
|
| W               H         W               H
|-------------------------|----------------------------||
|-------------------------|----------------------------||
|-------------------------|----------------------------||
|-------------------------|----------------------------||
|-------------------------|----------------------------||
|-------------------------|----------------------------||


 Verse 1
  E5
  PM----------------------------------------------------
  E  E E E E E E E E E E E    E  E E E E E E E E E E E
|--------0---0-------0---0-|---------0---0---0---0-----|
|------0---0-------0---0---|-------0---0---------------|
|----4-----------4---------|-----4---------------------|
|-2------------4-----------|--5------------7---5---4-5-|
|--------------------------|---------------------------|
|--------------------------|---------------------------|
|
|                             >
| W.                         +W.
|--------------------------|---------------------------|
|--------------------------|---------------------------|
|--------------------------|---------------------------|
|-2------------------------|-(2)-----------------------|
|-2------------------------|-(2)-----------------------|
|-0------------------------|-(0)-----------------------|


 -----------------------------------------------------|
   E  E E E E E E E E E E E    E  E E E E E E E E E E E
|---------0---0-------0---0-|---------0---0---0---0--------|
|-------0---0-------0---0---|-------0---0------------------|
|-----4-----------4---------|-----4------------------------|
|--2------------4-----------|--5------------7---5---4-5----|
|---------------------------|------------------------------|
|---------------------------|------------------------------|
|
| +W.                         +W.
|---------------------------|------------------------------|
|---------------------------|------------------------------|
|---------------------------|------------------------------|
|-(2)-----------------------|-(2)--------------------------|
|-(2)-----------------------|-(2)--------------------------|
|-(0)-----------------------|-(0)--------------------------|


  E5           F#5             G5            A5   G5   F#5G5
  Gtr I
  PM----------------------------------------------------------
  E  E E E E E  E  E E E E E    E  E E E E E  E E  E E  E  E
|--------0---0---------0---0-|---------0---0----0----0-------|
|------0---0---------0---0---|-------0---0-------------------|
|----4-------------4---------|-----4-------------------------|
|-2-------------4------------|--5-------------7----5----4--5-|
|----------------------------|-------------------------------|
|----------------------------|-------------------------------|
|
| Gtr II
| W                  H          W                  H
|----------------------------|-------------------------------|
|----------------------------|-------------------------------|
|----------------------------|-------------------------------|
|----------------------------|-------------------------------|
|----------------------------|-------------------------------|
|----------------------------|-------------------------------|
|
| Gtr III
| H.            H.              H.            Q    Q    E  E
|----------------------------|-------------------------------|
|----------------------------|-------------------------------|
|----------------------------|-------------------------------|
|-9------------11------------|-12------------14---12---11s12-|
|-7-------------9------------|-10------------12---10----9s10-|
|----------------------------|-------------------------------|


  E5           F#5             G5            A5    G5   F#5G5
 ----------------------------------------------------------|
  E  E E E E E  E  E E E E E    E  E E E E E  E  E  E E  E  E
|--------0---0---------0---0-|---------0---0-----0----0----------|
|------0---0---------0---0---|-------0---0-----------------------|
|----4-------------4---------|-----4-----------------------------|
|-2-------------4------------|--5-------------7-----5----4--5----|
|----------------------------|-----------------------------------|
|----------------------------|-----------------------------------|
|
|                                             TP
| W                  H          H.            H.
|----------------------------|-----------------------------------|
|----------------------------|-----------------------------------|
|----------------------------|-----------------------------------|
|----------------------------|----------------x\-----------------|
|----------------------------|----------------x\-----------------|
|----------------------------|-----------------------------------|
|
| H.            H.              H.            Q     Q    E  E
|----------------------------|-----------------------------------|
|----------------------------|-----------------------------------|
|----------------------------|-----------------------------------|
|-9------------11------------|-12------------14----12---11s12----|
|-7-------------9------------|-10------------12----10----9s10----|
|----------------------------|-----------------------------------|


    E5      F#5        G5       A5  G5    F#5G5
    Gtr II
    H.       H.         H.       E.  E E.  E  E
||-------------------|--------------------------|
||o------------------|--------------------------|
||-------------------|--------------------------|
||-------------------|--------------------------|
||o-2--------4-------|--5--------7---5-----4--5-|
||--0--------2-------|--3--------5---3-----2--3-|
|
|   Gtr III
|   H.       H.         H.       E.  E E.  E  E
||-------------------|--------------------------|
||o------------------|--------------------------|
||-------------------|--------------------------|
||--9-------11-------|-12-------14--12----11-12-|
||o-7--------9-------|-10-------12--10-----9-10-|
||-------------------|--------------------------|


                    1.
  E5      F#         G        A5  G5    F#5G5
  H.       H.         H.       E.  E E.  E  E
|------------------|---------------------------||
|------------------|--------------------------o||
|----------3-------|--4------------------------||
|------------------|---------------------------||
|-2--------1-------|--2--------7---5-----4--5-o||
|-0--------2-------|--3--------5---3-----2--3--||
|
| H.       H.         H.       E.  E E.  E  E
|------------------|---------------------------||
|------------------|--------------------------o||
|------------------|---------------------------||
|-9-------11-------|-12-------14--12----11-12--||
|-7--------9-------|-10-------12--10-----9-10-o||
|------------------|---------------------------||


 Interlude
  2.                         Q=180
  G                            N.C.
                  6/8         4/4
   ~~~~~~~~~~~~~~~~~~~~~
   W.               +H.        W
|----------------|-----------|---------------------------------|
|----------------|-----------|---------------------------------|
|--4-------------|--(4)------|---------------------------------|
|----------------|-----------|---------------------------------|
|--2-------------|--(2)------|---------------------------------|
|--3-------------|--(3)------|---------------------------------|
|
|  W.               +H.        S S S S S S S S S S S S S S S S
|----------------|-----------|---------------------------------|
|----------------|-----------|---------------------------------|
|----------------|-----------|-7-6-4-3-6-4-3---4-3-----3-------|
|-12-------------|-(12)------|---------------5-----5-4---5-4-2-|
|-10-------------|-(10)------|---------------------------------|
|----------------|-----------|---------------------------------|


  W
|-----------------------------------||
|-----------------------------------||
|-----------------------------------||
|-----------------------------------||
|-----------------------------------||
|-----------------------------------||
|
| S S S S S S S S S S S S S S S S
|-----------------------------------||
|-----------------------------------||
|-----------------------------------||
|-5-4-2---4-2-----2-----------------||
|-------5-----5-4---5-4-2-5-4-2-0---||
|-----------------------------------||


 Guitar Solo 2
  F#5G5 E5              F#5G5     E5
            PM------|                 PM------|
  Q  Q  E S S S S S S   Q   Q     E S S S S S S
|---------------------|-------------------------|
|---------------------|-------------------------|
|---------------------|-------------------------|
|---------------------|-------------------------|
|-4--5--2-------------|-4---5-----2-------------|
|-2--3--0---0-0-0-0-0-|-2---3-----0---0-0-0-0-0-|
|
| W                     Q  +Q     H
|---------------------|-------------------------|
|---------------------|-------------------------|
|---------------------|-------------------------|
|---------------------|-------------------------|
|---------------------|-------------------------|
|---------------------|-2--(2)b3----------------|


  F#5G5 E5              F#5     G5    E5
            PM------|                      PM------|
  Q  Q  E S S S S S S   Q       Q     E S  S S S S S
|---------------------|------------------------------|
|---------------------|------------------------------|
|---------------------|------------------------------|
|---------------------|------------------------------|
|-4--5--2-------------|-4-------5-----2--------------|
|-2--3--0---0-0-0-0-0-|-2-------3-----0----0-0-0-0-0-|
|
|                       |----3-----|
| H     Q     Q         Q +Q      +Q  E Q.
|---------------------|------------------------------|
|---------------------|------------------------------|
|---------------------|------------------------------|
|---------------------|------------------------------|
|---------------------|------------------------------|
|-3-----2-------------|-7-(7)b8r==(7)-6--------------|


  F#5     G5     E5              F#5        G5           E5
                     PM------|                                     PM---------------|
   Q       Q     E S S S S S S    Q           Q           E     S  S       S   S  S  S
|------------------------------|-------------------------------------------------------|
|------------------------------|-------------------------------------------------------|
|------------------------------|-------------------------------------------------------|
|------------------------------|-------------------------------------------------------|
|--4-------5-----2-------------|--4-----------5-----------2----------------------------|
|--2-------3-----0---0-0-0-0-0-|--2-----------3-----------0--------0-------0---0--0--0-|
|
|  S  E S  S S H           E      E.    +S   +E.     +S   S  S  S  S      +S   S  S  S
|------------------------------|-------------------------------------------------------|
|------------------------------|-------------------------17-16-14----------------------|
|-------9-11-9-------------xs==|=16b18r(16)-(16)b18r(16)----------16pb17r(16)-14-16-17-|
|-10-11------------------------|-------------------------------------------------------|
|------------------------------|-------------------------------------------------------|
|------------------------------|-------------------------------------------------------|


  F#5            G5          E5
                                       PM--------|
   Q              Q           E     S  S  S S  S  S
|---------------------------------------------------|
|---------------------------------------------------|
|---------------------------------------------------|
|---------------------------------------------------|
|--4--------------5-----------2---------------------|
|--2--------------3-----------0--------0--0-0--0--0-|
|
|        |--3--|
|  S  S  S  S  S  S  S  S  S  S  S  S  E.      S  S
|---------------------------------------------------|
|---------------------------------------------------|
|-16-14-16-14-------------14-15-14------------------|
|-------------17-16-14-16----------16-14------16-14-|
|---------------------------------------------------|
|---------------------------------------------------|


  F#5        G5         E5
                                  PM---------|
    Q        Q           E     S  S  S  S  S  S
|-----------------------------------------------|
|-----------------------------------------------|
|-----------------------------------------------|
|-----------------------------------------------|
|---4--------5-----------2----------------------|
|---2--------3-----------0--------0--0--0--0--0-|
|
|  +E   S  E    S  S  S  S  S  S  S  S  S  S  S
|-----------------------------------------------|
|-----------------------------------------------|
|-----------------------------------------------|
|-(14)----14------------------------------------|
|------16------16-15-14-16-15-14-12-15-14-12----|
|--------------------------------------------14-|


  F#5     G5      E5
                        PM------|
  Q       Q       E   S S S S S S
|----------------------------------|
|----------------------------------|
|----------------------------------|
|----------------------------------|
|-4-------5-------2----------------|
|-2-------3-------0-----0-0-0-0-0--|
|
| S S S S S S S S S S S S S S S S
|----------------------------------|
|----------------------------------|
|----------------------------------|
|----------------------------------|
|-2h3p2p0-2h3p2p0-2h3p2p0-2h3p2p0--|
|----------------------------------|


  F#5     G5        E5
                              PM------------|
  Q       Q         E     S   S   S   S   S S
|---------------------------------------------|
|---------------------------------------------|
|---------------------------------------------|
|---------------------------------------------|
|-4-------5---------2-------------------------|
|-2-------3---------0---------0---0---0---0-0-|
|
|         T         T             T
|         |---5---| |-----5-----| |--3--|
| S S S S S S S S S S S S   S   S S S   S E
|---------------------------------------------|
|---------------------------------------------|
|---------------------------------------------|
|---------------------------------------------|
|-2h3p2p0-7p2h4p2p0-7p2h3p==2p==0-7p2p==0-----|
|-----------------------------------------3S==|


  F#5         G5          E5
                                    PM--------------|
   Q           Q           E     S  S  S   S      S  S
|-------------------------------------------------------|
|-------------------------------------------------------|
|-------------------------------------------------------|
|-------------------------------------------------------|
|--4-----------5-----------2----------------------------|
|--2-----------3-----------0--------0--0---0------0--0--|
|
|  S  S  S  S  S  S  S  S  S  S  S  S  S   T   S.    S
|-------------------------------------------------------|
|-------------------------------------------------------|
|---------------------------------------------14--------|
|-------------------------------------14-(16)-------14--|
|-------------------------------14-16-------------------|
|-14-14-14-14-14-14-14-14-14-14-------------------------|


  F#5         G5          E5
                                    PM---------|
   Q           Q           E     S  S  S  S  S  S
|-------------------------------------------------|
|-------------------------------------------------|
|-------------------------------------------------|
|-------------------------------------------------|
|--4-----------5-----------2----------------------|
|--2-----------3-----------0--------0--0--0--0--0-|
|
|  S  S  S  S  S  S  S  S  S  S  S  S  S  S  S  S
|-------------------------------------------------|
|----------------------------------------14-------|
|-------------------------------14-16-17----16-14-|
|-16-16-16-16-16-16-16-16-16-16-------------------|
|-------------------------------------------------|
|-------------------------------------------------|


  F#5         G5          E5
                                    PM-----------|
   Q           Q           E     S  S  S  S    S  S
|----------------------------------------------------|
|----------------------------------------------------|
|----------------------------------------------------|
|----------------------------------------------------|
|--4-----------5-----------2-------------------------|
|--2-----------3-----------0--------0--0--0----0--0--|
|
|  S  S  S  S  S  S  S  S  S  S  S  S  S  E       S
|----14-14-14-14-14-14-14-14-------14-19-19b20p==14p=|
|-17-------------------------14-17-------------------|
|----------------------------------------------------|
|----------------------------------------------------|
|----------------------------------------------------|
|----------------------------------------------------|


  F#5     F#5          E5
                                   PM----------------|
  Q       Q             E     S    S     S    S   S  S
|------------------------------------------------------|
|------------------------------------------------------|
|------------------------------------------------------|
|------------------------------------------------------|
|-4-------5-------------2------------------------------|
|-2-------3-------------0----------0-----0----0---0--0-|
|
|                             |---3---|
| S  Q       +S   S  S  S  S  S  S    S  E       +E
|-0-19b21r==(19)-14----14-14-14------------------------|
|-------------------17----------17---14-17b19r==(17)---|
|------------------------------------------------------|
|------------------------------------------------------|
|------------------------------------------------------|
|------------------------------------------------------|


  F#5         G5          E5
                                         PM------------|
   Q           Q           E          S  S  S  S  S    S
|-----------------------------------------------------------|
|-----------------------------------------------------------|
|-----------------------------------------------------------|
|-----------------------------------------------------------|
|--4-----------5-----------2--------------------------------|
|--2-----------3-----------0-------------0--0--0--0----0----|
|
|                                                 |---3---|
|  S  S  S  S  S  S  S  S  S  +S      S  S  S  S  S  S    S
|------------------------------------14-14-14-14-19-17---14-|
|-14-17-14----------17-14-17-(17)b19------------------------|
|----------17-16-14-----------------------------------------|
|-----------------------------------------------------------|
|-----------------------------------------------------------|
|-----------------------------------------------------------|


  F#5           G5            E5
                                        PM---------|
   Q             Q             E     S  S  S  S  S  S
|-----------------------------------------------------|
|-----------------------------------------------------|
|-----------------------------------------------------|
|-----------------------------------------------------|
|--4-------------5-------------2----------------------|
|--2-------------3-------------0--------0--0--0--0--0-|
|
|  E     +S   S  E     +S   S  S  S  S  S  S  S  S  S
|-----------------------------------17-17-19-17-14----|
|-17b18r(17)p14-17b18r(17)p14-17p14----------------17-|
|-----------------------------------------------------|
|-----------------------------------------------------|
|-----------------------------------------------------|
|-----------------------------------------------------|


  F#5             G5            E5
                                          PM---------|
    Q              Q             E     S  S  S  S  S  S
|-------------------------------------------------------|
|-------------------------------------------------------|
|-------------------------------------------------------|
|-------------------------------------------------------|
|---4--------------5-------------2----------------------|
|---2--------------3-------------0--------0--0--0--0--0-|
|
|  +E      +S   S  E     +S   S  S  S  S  S  S  S  S  S
|-------------------------------------17-17-19-17-14----|
|-(17)b18r(17)p14-17b18r(17)p14-17p14----------------14-|
|-------------------------------------------------------|
|-------------------------------------------------------|
|-------------------------------------------------------|
|-------------------------------------------------------|


  F#5           G5            E5
                                        PM---------|
   Q             Q             E     S  S  S  S  S  S
|-----------------------------------------------------|
|-----------------------------------------------------|
|-----------------------------------------------------|
|-----------------------------------------------------|
|--4-------------5-------------2----------------------|
|--2-------------3-------------0--------0--0--0--0--0-|
|
|  E     +S   S  E     +S   S  S  S  S  S  S  S  S  S
|-----------------------------------17-17-19-17-14----|
|-17b18r(17)p14-17b18r(17)p14-17p14----------------17-|
|-----------------------------------------------------|
|-----------------------------------------------------|
|-----------------------------------------------------|
|-----------------------------------------------------|


    F#5E5 G5 A5     F#5
    Q  Q  Q  Q   4x W          +H.       E  E
||---------------||----------|-----------------||
||o-------------o||----------|-----------------||
||---------------||----------|-----------------||
||--4--2--5--7---||----------|-----------------||
||o-4--2--5--7--o||-4--------|-(4)-------------||
||--2--0--3--5---||-2--------|-(2)----------x\-||
|
|   Q  Q  Q  Q   4x W          +H.       Q
||---------------||----------|-----------------||
||o-------------o||----------|-----------------||
||---------------||----------|-----------------||
||---------------||----------|-----------------||
||o-4--2--5--7--o||-4--------|-(4)-------------||
||--2--0--3--5---||-2--------|-(2)------14\----||


 Pre-Verse
  Q.=175
  N.C.                G5     N.C.
 12/8
  W               H          W               H
|--------------------------|-------------------------|
|--------------------------|-------------------------|
|--------------------------|-------------------------|
|--------------------------|-------------------------|
|--------------------------|-------------------------|
|--------------------------|-------------------------|
|
| PM--------------|          PM-----------------------
| E E E E E E E E E a Q.     E E E E E E E E E E E E
|--------------------------|-------------------------|
|--------------------------|-------------------------|
|--------------------------|-------------------------|
|--------------------------|-------------------------|
|-------3-2-0-------4s5----|-------3-2-0-5-4-0-2-4-0-|
|-2-2-2-------2-2-2-2s3----|-2-2-2-------------------|


                      G5     N.C.
                             PM--------------------|
  W               H          E E E E E E E E E E E E
|--------------------------|----------------------------|
|--------------------------|----------------------------|
|--------------------------|----------------------------|
|--------------------------|----------------------------|
|--------------------------|-5-4-0-3-2-0-1-0------------|
|--------------------------|-----------------3-0-2-3----|
|
|-----------------|          PM--------------------|
| E E E E E E E E E a Q.     E E E E E E E E E E E E
|--------------------------|----------------------------|
|--------------------------|----------------------------|
|--------------------------|----------------------------|
|--------------------------|----------------------------|
|-------3-2-0-------4s5----|-5-4-0-3-2-0-1-0------------|
|-2-2-2-------2-2-2-2s3----|-----------------3-0-2-3----|


                    G5     N.C.
  PM--------------|        PM-----------------------
  E E E E E E E E E Q.     E E E E E E E E E E E E
|------------------------|-------------------------|
|------------------------|-------------------------|
|------------------------|-------------------------|
|-------------------5----|-------------------------|
|-------3-2-0-------5----|-------3-2-0-5-4-0-2-4-0-|
|-2-2-2-------2-2-2-3----|-2-2-2-------------------|
|
| PM--------------|        PM-----------------------
| E E E E E E E E E Q.     E E E E E E E E E E E E
|------------------------|-------------------------|
|------------------------|-------------------------|
|------------------------|-------------------------|
|------------------------|-------------------------|
|-------3-2-0-------5----|-------3-2-0-5-4-0-2-4-0-|
|-2-2-2-------2-2-2-3----|-2-2-2-------------------|


                    G5     N.C.
 -----------------|        PM--------------------|
  E E E E E E E E E Q.     E E E E E E E E E E E E
|------------------------|----------------------------||
|------------------------|----------------------------||
|------------------------|----------------------------||
|-------------------5----|----------------------------||
|-------3-2-0-------5----|-5-4-0-3-2-0-1-0------------||
|-2-2-2-------2-2-2-3----|-----------------3-0-2-3----||
|
|-----------------|        PM--------------------|
| E E E E E E E E E Q.     E E E E E E E E E E E E
|------------------------|----------------------------||
|------------------------|----------------------------||
|------------------------|----------------------------||
|------------------------|----------------------------||
|-------3-2-0-------5----|-5-4-0-3-2-0-1-0------------||
|-2-2-2-------2-2-2-3----|-----------------3-0-2-3----||


   Verse 2 & 3
    $
    N.C.              G5     N.C.
    PM--------------|        PM-----------------------
    E E E E E E E E E Q.     E E E E E E E E E E E E
||-------------------------|-------------------------|
||o------------------------|-------------------------|
||-------------------------|-------------------------|
||--------------------5----|-------------------------|
||o-------3-2-0-------5----|-------3-2-0-5-4-0-2-4-0-|
||--2-2-2-------2-2-2-3----|-2-2-2-------------------|
|
|   PM--------------|        PM-----------------------
|   E E E E E E E E E Q.     E E E E E E E E E E E E
||-------------------------|-------------------------|
||o------------------------|-------------------------|
||-------------------------|-------------------------|
||-------------------------|-------------------------|
||o-------3-2-0-------5----|-------3-2-0-5-4-0-2-4-0-|
||--2-2-2-------2-2-2-3----|-2-2-2-------------------|


                    G5     N.C.
 -----------------|        PM--------------------|
  E E E E E E E E E Q.     E E E E E E E E E E E E
|------------------------|----------------------------||
|------------------------|---------------------------o||
|------------------------|----------------------------||
|-------------------5----|----------------------------||
|-------3-2-0-------5----|-5-4-0-3-2-0-1-0-----------o||
|-2-2-2-------2-2-2-3----|-----------------3-0-2-3----||
|
|-----------------|        PM--------------------|
| E E E E E E E E E Q.     E E E E E E E E E E E E
|------------------------|----------------------------||
|------------------------|---------------------------o||
|------------------------|----------------------------||
|------------------------|----------------------------||
|-------3-2-0-------5----|-5-4-0-3-2-0-1-0-----------o||
|-2-2-2-------2-2-2-3----|-----------------3-0-2-3----||


                    G#5    N.C.              G#5
  Gtrs II, III
  PM--------------|        PM--------------|
  E E E E E E E E E Q.     E E E E E E E E E Q.
|------------------------|------------------------|
|------------------------|------------------------|
|------------------------|------------------------|
|------------------------|------------------------|
|-------4-3---------6----|-------4-3---------6----|
|-3-3-3-----6-3-3-3-4----|-3-3-3-----6-3-3-3-4----|


  N.C.  A5 B5      C5 C#5       A5 B5      G5
  PM--|        PM|          PM|      PM--|
  E E E Q  E E E E Q  E   E E E Q  E E E E Q  E
|-----------------------|--------------------------|
|-----------------------|--------------------------|
|-------2--4-------5--6-|-------2--4-------0-------|
|-------2--4-------5--6-|-------2--4-------0-------|
|-----------------------|--------------------------|
|-2-2-2--------2-2------|---2-2--------2-2---------|


  N.C.              G#5    N.C.              G#5
  PM--------------|        PM--------------|
  E E E E E E E E E Q.     E E E E E E E E E Q.
|------------------------|------------------------|
|------------------------|------------------------|
|------------------------|------------------------|
|------------------------|------------------------|
|-------4-3---------6----|-------4-3---------6----|
|-3-3-3-----6-3-3-3-4----|-3-3-3-----6-3-3-3-4----|


                                            D.S.
  N.C.  A5 B5      C5 C#5       E5 F#5
  PM--|      PM--|        PM--|      PM--|
  E E E Q  E E E E Q  E   E E E Q  E E E E Q  E
|-----------------------|-------0--2---------------||
|-----------------------|-------0--2---------------||
|-------2--4-------5--6-|------------------6-------||
|-------2--4-------5--6-|------------------4-------||
|-----------------------|--------------------------||
|-2-2-2--------2-2------|---2-2--------2-2---------||


 Bridge
  N.C.              G5     N.C.                                        G5
  Gtr II
  PM--------------|        PM----------------------------------------|
  E E E E E E E E E Q.     E E E E E E E E E E E E   E E E E E E E E E Q.
|------------------------|-------------------------|-------------------------|
|------------------------|-------------------------|-------------------------|
|------------------------|-------------------------|-------------------------|
|-------------------5----|-------------------------|-------------------5-----|
|-------3-2-0-------5----|-------3-2-0-5-4-0-2-4-0-|-------3-2-0-------5-----|
|-2-2-2-------2-2-2-3----|-2-2-2-------------------|-2-2-2-------2-2-2-3-----|
|
| Gtr III
| PM--------------|        PM----------------------------------------|
| E E E E E E E E E Q.     E E E E E E E E E E E E   E E E E E E E E E Q.
|------------------------|-------------------------|-------------------------|
|------------------------|-------------------------|-------------------------|
|------------------------|-------------------------|-------------------------|
|------------------------|-------------------------|-------------------------|
|-------3-2-0-------5----|-------3-2-0-5-4-0-2-4-0-|-------3-2-0-------5-----|
|-2-2-2-------2-2-2-3----|-2-2-2-------------------|-2-2-2-------2-2-2-3-----|


  N.C.                                                F#5
  Gtrs II, III
  PM----------------------------------------------|
  E E E E E E E E E E E E   E E E E E E E E E E E E   W.                W.
|-------------------------|-------------------------|---------------|---------||
|-------------------------|-------------------------|---------------|---------||
|-------------------------|-------------------------|---------------|---------||
|-------------------------|-------------------------|---------------|---------||
|-5-4-0-3-2-0-1-0---------|-6-5---4-3---2-1---------|-4-------------|-/16-----||
|-----------------3-0-2-3-|-----6-----6-----4-1-3-4-|-2-------------|-/14-----||


   Pre-Verse
    Q=190
    N.C.
   4/4
    Gtr III
    E. S T T S S E S S S S S S S   E. S T T S S E S S S S S S S
||-------------------------------|------------------------------|
||o------------------------------|------------------------------|
||-------------------------------|------------------------------|
||-------------------------------|------------------------------|
||o----0-2h3p2p0-----2h3p2h3p2p0-|----0-2h3p2p0-----2h3p2h3p2p0-|
||--2------------2---------------|-2------------2---------------|


  E. S T T S S E S S S S S S S   E. S T T S S E S S S S S S S
|------------------------------|---------------------------------||
|------------------------------|--------------------------------o||
|------------------------------|---------------------------------||
|------------------------------|---------------------------------||
|----0-2h3p2p0-----2h3p2h3p2p0-|----0-2h3p2p0-----2h3p2h3p2p0---o||
|-2------------2---------------|-2------------2------------------||


   Verse 4
    Gtrs II, III
    S S S S T T S S E S S S S S S S   S S S S T T S S E S S S S S S S
||----------------------------------|---------------------------------|
||o---------------------------------|---------------------------------|
||----------------------------------|---------------------------------|
||----------------------------------|---------------------------------|
||o-------0-2h3p2p0-----2h3p2h3p2p0-|-------0-2h3p2p0-----2h3p2h3p2p0-|
||--2-2-2-----------2---------------|-2-2-2-----------2---------------|


  S S S S T T S S E S S S S S S S   S S S S T T S S E S S S S S S S
|---------------------------------|------------------------------------|
|---------------------------------|------------------------------------|
|---------------------------------|------------------------------------|
|---------------------------------|------------------------------------|
|-------0-2h3p2p0-----2h3p2h3p2p0-|-------0-2h3p2p0-----2h3p2h3p2p0----|
|-2-2-2-----------2---------------|-2-2-2-----------2------------------|


  S S S S T T S S E S S S S S S S
|---------------------------------|
|---------------------------------|
|---------------------------------|
|---------------------------------|
|-------0-2h3p2p0-----2h3p2h3p2p0-|
|-2-2-2-----------2---------------|


                                    F#5
  S S S S T T S S E S S S S S S S   W            W
|---------------------------------|----------|---------||
|---------------------------------|----------|--------o||
|---------------------------------|----------|---------||
|---------------------------------|----------|---------||
|-------0-2h3p2p0-----2h3p2h3p2p0-|-4--------|-/16----o||
|-2-2-2-----------2---------------|-2--------|-/14-----||


   Pre-Chorus
    N.C.                              A#5A5 C5 A#5A5F5
    S S S S S S S S S S S S S S S S   E. E. E. E. E E
||----------------------------------|-----------------|
||o---------------------------------|-----------------|
||----------------------------------|-3--2--5--3--2---|
||----------------------------------|-3--2--5--3--2-3-|
||o---------------------------------|---------------3-|
||--3-3-3-3-3-3-3-3-3-3-3-3-3-3-3-3-|-----------------|


  N.C.
  S S S S T T S S E S S S S S S S   S S S S T T S S E S S S S S S S
|---------------------------------|-----------------------------------||
|---------------------------------|----------------------------------o||
|---------------------------------|-----------------------------------||
|---------------------------------|-----------------------------------||
|-------0-2h3p2p0-----2h3p2h3p2p0-|-------0-2h3p2p0-----2h3p2h3p2p0--o||
|-2-2-2-----------2---------------|-2-2-2-----------2-----------------||


 Chorus
  N.C.
  S S S S S S S S S S S S S S S S
|---------------------------------|
|---------------------------------|
|---------------------------------|
|---------------------------------|
|---------------------------------|
|-3-3-3-3-3-3-3-3-3-3-3-3-3-3-3-3-|


                                    F#5
  S S S S S S S S S S S S S S S S   E E H.        W
|---------------------------------|-------------|------||
|---------------------------------|-------------|------||
|---------------------------------|-------------|------||
|---------------------------------|-------------|------||
|---------------------------------|-4-----------|------||
|-5-5-5-5-5-5-5-5-5-5-5-5-5-5-5-5-|-2-----------|------||


 Bridge
  N.C.                                              C5B5A5
                                                    |-3-|
  S S S S S S S S S S S S S S S S   S S S S S S S S Q Q Q
|---------------------------------|-----------------------|
|---------------------------------|-----------------------|
|---------------------------------|-----------------------|
|---------------------------------|-----------------5-4-2-|
|---------------------------------|-----------------3-2-0-|
|-0-2-2-2-2-2-2-2-0-2-2-2-2-2-2-2-|-0-2-2-2-2-2-2-2-------|


  N.C.                                              D5C#B5
                                                    |-3-|
  S S S S S S S S S S S S S S S S   S S S S S S S S Q Q Q
|---------------------------------|-------------------------|
|---------------------------------|-------------------------|
|---------------------------------|-------------------------|
|---------------------------------|-----------------7-6-4---|
|---------------------------------|-----------------5-4-2---|
|-2-4-4-4-4-4-4-4-2-4-4-4-4-4-4-4-|-2-4-4-4-4-4-4-4---------|


  N.C.
  Gtr II
  S S S S S S S S S S S S S S S S   S S S S S S S S S S S S S S S S
|---------------------------------|---------------------------------|
|---------------------------------|---------------------------------|
|---------------------------------|---------------------------------|
|---------------------------------|---------------------------------|
|---------------------------------|---------------------------------|
|-5-7-7-7-7-7-7-7-5-7-7-7-7-7-7-7-|-7-9-9-9-9-9-9-9-7-9-9-9-9-9-9-9-|
|
| Gtr III
| S S S S S S S S S S S S S S S S   S S S S S S S S S S S S S S S S
|---------------------------------|---------------------------------|
|---------------------------------|---------------------------------|
|---------------------------------|---------------------------------|
|-------0-2h3p2p0-------0-2h3p2p0-|-------2-4h5p4p2-------2-4h5p4p2-|
|-2-2-2-----------2-2-2-----------|-4-4-4-----------4-4-4-----------|
|---------------------------------|---------------------------------|


  S  S  S  S  S  S  S  S  S  S  S  S  S  S  S  S
|------------------------------------------------|
|------------------------------------------------|
|------------------------------------------------|
|------------------------------------------------|
|------------------------------------------------|
|-9-10-10-10-10-10-10-10-10-11-11-11-11-11-11-11-|
|
| S  S  S  S  S  S  S  S  S  S  S  S  S  S  S  S
|------------------------------------------------|
|------------------------------------------------|
|------------------------------------------------|
|----------3--5h=6p=5p=3-----------4--6h=7p=6p=4-|
|-5--5--5-----------------6--6--6----------------|
|------------------------------------------------|


   S  S  S  S  S  S  S  S  S  S  S  S  S  S  S  S
|-------------------------------------------------||
|-------------------------------------------------||
|-------------------------------------------------||
|-------------------------------------------------||
|-------------------------------------------------||
|-11-12-12-12-12-12-12-12-12-13-13-13-13-13-13-13-||
|
|  S  S  S  S  S  S  S  S  S  S  S  S  S  S  S  S
|-------------------------------------------------||
|-------------------------------------------------||
|-------------------------------------------------||
|-----------5--7h=8p=7p=5-----------6--8h=9p=8p=6-||
|--7--7--7-----------------8--8--8----------------||
|-------------------------------------------------||


 Guitar Solo 3
  N.C.
  E     S S Q         +H
|---------2--------------------------------|
|-------2---5b7-------(5)pb7r==============|
|-4b5--------------------------------------|
|------------------------------------------|
|------------------------------------------|
|------------------------------------------|
|
| S   S S S S   S S S  S     S S S S S S S
|------------------------------------------|
|------------------------------------------|
|------------------------------------------|
|------------------------------------------|
|------------------------------------------|
|-2---2-2-2-2---2-2-2--2-----2-2-2-2-2-2-2-|


                      A5              E5
  +E      S S S S S S S S S   S S S     +S  S
|---------------2-----------------------------|
|-(5)b7r==5p2-----5p2---2---------------------|
|-------------4-------4---5p==4p2-4b5r==(4)-2-|
|---------------------------------------------|
|---------------------------------------------|
|---------------------------------------------|
|
|                     |-------3-------|
|  S    S S S S S S S Q     Q         Q
|---------------------------------------------|
|---------------------------------------------|
|---------------------------------------------|
|---------------------2-----2-----------------|
|---------------------0-----0---------2-------|
|--2----2-2-2-2-2-2-2-----------------0-------|


  N.C.                                                              C5B5    A5
   S    +S   E       E    S E   E   S E   E       +H.                   Q
|-----------------------------------------------|-----------------------------|
|-----------------------------------------------|-----------------------------|
|-[4]b5r(4)-[4]b5---[2]-------------------------|-----------------------------|
|-------------------------4-2-------------------|-----------------------------|
|-------------------------------4---3-2---2b4---|-(2)-------------------------|
|-----------------------------------------------|-----------------------2b5---|
|
|                                                                   |---3---|
|  S     S   S    S  S  S S S S S S S S S S   S    S  S S S S S S S Q Q     Q
|-----------------------------------------------|-----------------------------|
|-----------------------------------------------|-----------------------------|
|-----------------------------------------------|-----------------------------|
|-----------------------------------------------|-------------------5-4-----2-|
|-----------------------------------------------|-------------------3-2-----0-|
|--2-----2---2----2--2--2-2-2-2-2-2-2-2-2-2---2-|--2--2-2-2-2-2-2-2-----------|


  N.C.                                                         A5  E5
  +H.                          +E.     S   E   S S  H.
|----------------------------------------|----------------------------|
|----------------------------------------|-7-----7s10b12r=============|
|--------------------------------------6-|-----6----------------------|
|----------------------------------------|----------------------------|
|----------------------------------------|----------------------------|
|-(2)pb5r======================(2)-------|----------------------------|
|
|                                                              |-3-|
|  S     S S S S S S S S S S S  S  S S S   S S S S  S    S S S Q Q Q
|----------------------------------------|----------------------------|
|----------------------------------------|----------------------------|
|----------------------------------------|----------------------------|
|----------------------------------------|---------------------2-2----|
|----------------------------------------|---------------------0-0-2--|
|--2-----2-2-2-2-2-2-2-2-2-2-2--2--2-2-2-|-2-2-2-2--2----2-2-2-----0--|


  N.C.
   +S   S  S  S  S  S  S  S  S  S  S  S  S  S  S  S
|---------------------------------------------------|
|-(10)h12p10h12p10----10h12h14p12p10----10h12h14p12p|
|------------------11----------------11-------------|
|---------------------------------------------------|
|---------------------------------------------------|
|---------------------------------------------------|
|
|   S   S  S  S  S  S  S  S  S  S  S  S  S  S  S  S
|---------------------------------------------------|
|---------------------------------------------------|
|---------------------------------------------------|
|---------------------------------------------------|
|---------------------------------------------------|
|---2---2--2--2--2--2--2--2--2--2--2--2--2--2--2--2-|


                          C5       B5           A5
   S  S  S  S  S  S  S  S  S  S  S    S     +Q
|--------------------------------------------------|
|-10----12h14-15p14p12----15p14p12---12b14-(12)----|
|----11----------------14--------------------------|
|--------------------------------------------------|
|--------------------------------------------------|
|--------------------------------------------------|
|
|                          |---------3----------|
|  S  S  S  S  S  S  S  S  Q       Q            Q
|--------------------------------------------------|
|--------------------------------------------------|
|--------------------------------------------------|
|--------------------------5-------4------------2--|
|--------------------------3-------2------------0--|
|--2--2--2--2--2--2--2--2--------------------------|


  N.C.
   S  S  S  S  S  S  S  S  S  S  S  S  S  S  S  S
|-------------------------------------------------|
|-14----14h15p14----------14h17p14----------14h19p|
|----16----------16p14h16----------16p14h16-------|
|-------------------------------------------------|
|-------------------------------------------------|
|-------------------------------------------------|
|
|  S  S  S  S  S  S  S  S  S  S  S  S  S  S  S  S
|-------------------------------------------------|
|-------------------------------------------------|
|-------------------------------------------------|
|-------------------------------------------------|
|-------------------------------------------------|
|--2--2--2--2--2--2--2--2--2--2--2--2--2--2--2--2-|


                          A5                  E5
   S  S  S  S  S  S  S  S  S  S  S    S  S  S    S  S
|-----------------------------------------------------|
|-14----------14h15p14-----------------------------14-|
|----16p14h16----------16p14---------------14h==16----|
|----------------------------16p15---14h16------------|
|-----------------------------------------------------|
|-----------------------------------------------------|
|
|                          |--------3---------|
|  S  S  S  S  S  S  S  S  Q       Q          Q
|-----------------------------------------------------|
|-----------------------------------------------------|
|-----------------------------------------------------|
|--------------------------2-------2------------------|
|--------------------------0-------0----------2-------|
|--2--2--2--2--2--2--2--2---------------------0-------|


  N.C.
   |---3---|                                      |---3---|
   S  S    S  S  S  S  S  S  S  S  S  S  S  S  S  S  S    S
|-----------------------------------------------------------|
|-17p16p==14-16p14-16p14-------------------------14---------|
|------------------------16p15-14h15p14----14h15----16p==15-|
|---------------------------------------17------------------|
|-----------------------------------------------------------|
|-----------------------------------------------------------|
|
|  S    S     S  S  S  S  S  S  S  S  S  S  S  S  S    S
|-----------------------------------------------------------|
|-----------------------------------------------------------|
|-----------------------------------------------------------|
|-----------------------------------------------------------|
|-----------------------------------------------------------|
|--2----2-----2--2--2--2--2--2--2--2--2--2--2--2--2----2----|


                               C5       B5      A5
   |---3---|
   S  S    S  S  S  S  S  S  S  S  S  S    S  Q
|--------------------------------------------17----|
|---------14------------------------------14-------|
|-14h15------16p15p14----------16p15h16------------|
|---------------------17p14------------------------|
|---------------------------16---------------------|
|--------------------------------------------------|
|
|                               |-------3-------|
|  S    S     S  S  S  S  S  S  Q       Q       Q
|--------------------------------------------------|
|--------------------------------------------------|
|--------------------------------------------------|
|-------------------------------5-------4-------2--|
|-------------------------------3-------2-------0--|
|--2----2-----2--2--2--2--2--2---------------------|


  N.C.
   +Q            +H                 +E         E
|-(17)b19-------(17)---------------(17)pb19r==17b19---|
|-----------------------------------------------------|
|-----------------------------------------------------|
|-----------------------------------------------------|
|-----------------------------------------------------|
|-----------------------------------------------------|
|
|   S     S S S   S  S S S S S S S   S      S  S    S
|-----------------------------------------------------|
|-----------------------------------------------------|
|-----------------------------------------------------|
|-----------------------------------------------------|
|-----------------------------------------------------|
|---2-----2-2-2---2--2-2-2-2-2-2-2---2------2--2----2-|


                               A5                 E5
   +Q             +S   S  S  E    S  S    S  S  S    S  S
|-(17)pb19r======(17)p14----14------14--------------14h15p=|
|------------------------17------17------17p14h17----------|
|----------------------------------------------------------|
|----------------------------------------------------------|
|----------------------------------------------------------|
|----------------------------------------------------------|
|
|                              |--------3---------|
|   S      S S S   S   S  S  S Q       Q          Q
|----------------------------------------------------------|
|----------------------------------------------------------|
|----------------------------------------------------------|
|------------------------------2-------2-------------------|
|------------------------------0-------0----------2--------|
|---2------2-2-2---2---2--2--2--------------------0--------|


  N.C.
         |---3---|
   S  S  S  S    S  S  S  S  S  S  S  E       +S   S  S  S
|-14-------------------------------------------------------|
|----17p15p14------15p14----------14-----------------------|
|---------------16-------15h16p15--------------------------|
|------------------------------------16b17r==(16)p14-------|
|----------------------------------------------------16p14-|
|----------------------------------------------------------|
|
|  S  S  S    S     S  S  S  S  S  S  S    S   S   S  S  S
|----------------------------------------------------------|
|----------------------------------------------------------|
|----------------------------------------------------------|
|----------------------------------------------------------|
|----------------------------------------------------------|
|--2--2--2----2-----2--2--2--2--2--2--2----2---2---2--2--2-|


                      C5      B5         A5        C5                  B5A5
                                                                     |-3-|
   H                   +E   S    S  S  S    S  S    Q      +Q        Q Q Q
|------------------------------------------------|-------------------------||
|------------------------------------------------|-------------------------||
|-14b18r==============(14)p11---14p11------------|-------------------------||
|-------------------------------------14p==11----|-------------------5-4-2-||
|---------------------------------------------14p|=12b13--(12)pb13\--3-2-0-||
|------------------------------------------------|-------------------------||
|
|                       |-------3--------|                           |-3-|
|  S    S S S S S S S   Q     Q          Q          Q       Q        Q Q Q
|------------------------------------------------|-------------------------||
|------------------------------------------------|-------------------------||
|------------------------------------------------|-------------------------||
|-----------------------5-----4----------2-------|--5----------------5-4-2-||
|-----------------------3-----2----------0-------|--3----------------3-2-0-||
|--2----2-2-2-2-2-2-2----------------------------|-------------------------||


 Verse 5
  N.C.
  Gtrs II, III
  S S S S T T S S E S S S S S S S   S S S S T T S S E S S S S S S S
|---------------------------------|---------------------------------|
|---------------------------------|---------------------------------|
|---------------------------------|---------------------------------|
|---------------------------------|---------------------------------|
|-------0-2h3p2p0-----2h3p2h3p2p0-|-------0-2h3p2p0-----2h3p2h3p2p0-|
|-2-2-2-----------2---------------|-2-2-2-----------2---------------|


  S S S S T T S S E S S S S S S S   S S S S T T S S E S S S S S S S
|---------------------------------|------------------------------------|
|---------------------------------|------------------------------------|
|---------------------------------|------------------------------------|
|---------------------------------|------------------------------------|
|-------0-2h3p2p0-----2h3p2h3p2p0-|-------0-2h3p2p0-----2h3p2h3p2p0----|
|-2-2-2-----------2---------------|-2-2-2-----------2------------------|


  S S S S T T S S E S S S S S S S
|---------------------------------|
|---------------------------------|
|---------------------------------|
|---------------------------------|
|-------0-2h3p2p0-----2h3p2h3p2p0-|
|-2-2-2-----------2---------------|


                                    F#5
  S S S S T T S S E S S S S S S S   W            W
|---------------------------------|----------|--------||
|---------------------------------|----------|--------||
|---------------------------------|----------|--------||
|---------------------------------|----------|--------||
|-------0-2h3p2p0-----2h3p2h3p2p0-|-4--------|-/16----||
|-2-2-2-----------2---------------|-2--------|-/14----||


   Pre-Chorus
    N.C.                              A#5A5 C5 A#5A5F5
    S S S S S S S S S S S S S S S S   E. E. E. E. E E
||----------------------------------|-----------------|
||o---------------------------------|-----------------|
||----------------------------------|-3--2--5--3--2---|
||----------------------------------|-3--2--5--3--2-3-|
||o---------------------------------|---------------3-|
||--3-3-3-3-3-3-3-3-3-3-3-3-3-3-3-3-|-----------------|


  N.C.
  S S S S T T S S E S S S S S S S   S S S S T T S S E S S S S S S S
|---------------------------------|-----------------------------------||
|---------------------------------|----------------------------------o||
|---------------------------------|-----------------------------------||
|---------------------------------|-----------------------------------||
|-------0-2h3p2p0-----2h3p2h3p2p0-|-------0-2h3p2p0-----2h3p2h3p2p0--o||
|-2-2-2-----------2---------------|-2-2-2-----------2-----------------||


 Chorus
  N.C.
  S S S S S S S S S S S S S S S S
|---------------------------------|
|---------------------------------|
|---------------------------------|
|---------------------------------|
|---------------------------------|
|-3-3-3-3-3-3-3-3-3-3-3-3-3-3-3-3-|


                                    F#5
  S S S S S S S S S S S S S S S S   E E H.        W
|---------------------------------|-------------|------||
|---------------------------------|-------------|------||
|---------------------------------|-------------|------||
|---------------------------------|-------------|------||
|---------------------------------|-4-----------|------||
|-5-5-5-5-5-5-5-5-5-5-5-5-5-5-5-5-|-2-----------|------||


   Outro
    N.C.
    S S S S S S S S S S S S S S S S
||----------------------------------|
||o---------------------------------|
||----------------------------------|
||----------------------------------|
||o---------------------------------|
||--2-2-2-2-2-2-2-2-2-2-2-2-2-2-2-2-|


                  A5  E5  N.C.
                  |-3-|
  S S S S S S S S Q Q Q   S S S S S S S S S S S S S S S S
|-----------------------|----------------------------------|
|-----------------------|----------------------------------|
|-----------------------|----------------------------------|
|-----------------2-2---|----------------------------------|
|-----------------0-0-2-|----------------------------------|
|-2-2-2-2-2-2-2-2-----0-|-2-2-2-2-2-2-2-2-2-2-2-2-2-2-2-2--|


                  C5B5A5    C5B5A5C5B5A5  F#5
                  |-3-|     |-3-| |-3-|
  S S S S S S S S Q Q Q  8x Q Q Q Q Q Q   Q  +Q    H
|------------------------||-------------|---------------*|
|-----------------------o||-------------|---------------*|
|------------------------||-------------|---------------*|
|-----------------5-4-2--||-5-4-2-5-4-2-|---------------*|
|-----------------3-2-0-o||-3-2-0-3-2-0-|-4--(4)\-------*|
|-2-2-2-2-2-2-2-2--------||-------------|-2--(2)\-------*|



Duration Legend
---------------
W - whole; H - half; Q - quarter; E - 8th; S - 16th; T - 32nd; X - 64th; a - acciaccatura
+ - note tied to previous; . - note dotted; .. - note double dotted
Uncapitalized letters represent notes that are staccato (1/2 duration)
Irregular groupings are notated above the duration line
Duration letters will always appear directly above the note/fret number it represents the
duration for.  Duration letters with no fret number below them represent rests.  Multi-
bar rests are notated in the form Wxn, where n is the number of bars to rest for.  Low
melody durations appear below the staff

Tablature Legend
----------------
 h   - hammer-on
 p   - pull-off
 b   - bend
 pb  - pre-bend
 r   - bend release (if no number after the r, then release immediately)
 /\  - slide into or out of (from/to "nowhere")
 s   - legato slide
 S   - shift slide
 - natural harmonic
[n]  - artificial harmonic
n(n) - tapped harmonic
 ~   - vibrato
 tr  - trill
 T   - tap
 TP  - trem. picking
 PM  - palm muting
\n/  - tremolo bar dip; n = amount to dip
 \n  - tremolo bar down
 n/  - tremolo bar up
/n\  - tremolo bar inverted dip
 =   - hold bend; also acts as connecting device for hammers/pulls
 <> - volume swell (louder/softer)
 x   - on rhythm slash represents muted slash
 o   - on rhythm slash represents single note slash

Misc Legend
-----------
 |  - bar
||  - double bar
||o - repeat start
o|| - repeat end
*|  - double bar (ending)
 :  - bar (freetime)
 $  - Segno
 &  - Coda
Tempo markers -  = BPM(8/16=s8/s16), where s8 = swing 8ths, s16 = swing 16ths

Related for Good Mourning Black Friday tab