Song name
# A B C D E F G H I J K L M N O P Q R S T U V W X Y Z

Megadeth - Fff tab

#----------------------------------PLEASE NOTE---------------------------------#
#This file is the author's own work and represents their interpretation of the #
#song. You may only use this file for private study, scholarship, or research. #
#------------------------------------------------------------------------------#

FFF
As recorded by Megadeth
(From the 1997 Album CRYPTIC WRITINGS)

Transcribed by unregistered
	

Words and Music by Dave Mustaine, Dave Ellefson, Marty Friedman and Nick Menza

Gtr I (E A D G B E) - 'Untitled'
Gtr II (E A D G B E) - 'Untitled'
Gtr III (E A D G B E) - 'Untitled'
Gtr IV (E A D G B E) - 'Untitled'
Gtr V (E A D G B E) - 'Untitled'

 Intro
  Q=186
  B5                              B5
 4/4
  Gtrs I, II
       PM     PM       PM     PM       PM     PM       PM     PM
  E Q  E E Q  E   E Q  E E Q  E   E Q  E E Q  E   E Q  E E Q  E
|---------------|---------------|---------------|---------------|
|---------------|---------------|---------------|---------------|
|-4-4----4-4----|-4-4----4-4----|-4-4----4-4----|-4-4----4-4----|
|-4-4----4-4----|-4-4----4-4----|-4-4----4-4----|-4-4----4-4----|
|-2-2--0-2-2--0-|-2-2----2-2----|-2-2--0-2-2--0-|-2-2----2-2----|
|---------------|-3-3--2-3-3--2-|---------------|-3-3--2-3-3--2-|


  B5                              A5
       PM     PM       PM     PM       PM     PM       PM     PM
  E Q  E E Q  E   E Q  E E Q  E   E Q  E E Q  E   E Q  E E Q  E
|---------------|---------------|---------------|----------------|
|---------------|---------------|---------------|----------------|
|-4-4----4-4----|-4-4----4-4----|-2-2----2-2----|-2-2----2-2-----|
|-4-4----4-4----|-4-4----4-4----|-2-2----2-2----|-2-2----2-2-----|
|-2-2--0-2-2--0-|-2-2----2-2----|-0-0----0-0----|-0-0----0-0-----|
|---------------|-3-3--2-3-3--2-|------3------3-|------3------3--|


                              Verse
  F#5                          B5          D5  G5
                                    PM              PM     PM
  W          Q  Q   Q   Q      E Q  E E Q  E   E Q  E E Q  E
|----------|---------------||----------------|----------------|
|----------|---------------||o---------------|----------------|
|----------|---------------||--4-4----4-4--7-|----------------|
|-4--------|-4-------------||--4-4----4-4--7-|-5-5----5-5-----|
|-4--------|-4--x\--x\--x--||o-2-2--0-2-2--5-|-5-5----5-5-----|
|-2--------|-2--x\--x\--x--||----------------|-3-3--2-3-3--2--|


  B5          D5  G5               B5          D5  G5
       PM              PM------|        PM              PM     PM
  E Q  E E Q  E   E Q  E E E E E   E Q  E E Q  E   E Q  E E Q  E
|---------------|----------------|---------------|----------------|
|---------------|----------------|---------------|----------------|
|-4-4----4-4--7-|----------------|-4-4----4-4--7-|----------------|
|-4-4----4-4--7-|-5-5------------|-4-4----4-4--7-|-5-5----5-5-----|
|-2-2--0-2-2--5-|-5-5----------0-|-2-2--0-2-2--5-|-5-5----5-5-----|
|---------------|-3-3--2-0-2-3---|---------------|-3-3--2-3-3--2--|


  A5                              B5          D5  G5
       PM     PM       PM     PM       PM              PM     PM
  E Q  E E Q  E   E Q  E E Q  E   E Q  E E Q  E   E Q  E E Q  E
|---------------|---------------|---------------|----------------|
|---------------|---------------|---------------|----------------|
|-2-2----2-2----|-2-2----2-2----|-4-4----4-4--7-|----------------|
|-2-2----2-2----|-2-2----2-2----|-4-4----4-4--7-|-5-5----5-5-----|
|-0-0----0-0----|-0-0----0-0----|-2-2--0-2-2--5-|-5-5----5-5-----|
|------3------3-|------3------3-|---------------|-3-3--2-3-3--2--|


  B5          D5  G5               B5          D5  G5
       PM              PM------|        PM              PM     PM
  E Q  E E Q  E   E Q  E E E E E   E Q  E E Q  E   E Q  E E Q  E
|---------------|----------------|---------------|----------------|
|---------------|----------------|---------------|----------------|
|-4-4----4-4--7-|----------------|-4-4----4-4--7-|----------------|
|-4-4----4-4--7-|-5-5------------|-4-4----4-4--7-|-5-5----5-5-----|
|-2-2--0-2-2--5-|-5-5----------0-|-2-2--0-2-2--5-|-5-5----5-5-----|
|---------------|-3-3--2-0-2-3---|---------------|-3-3--2-3-3--2--|


  A5                                        E5          G5  C5
       PM     PM              PM--------|        PM              PM     PM
  E Q  E E Q  E   E E E S S E S S S S S S   E Q  E E Q  E   E Q  E E Q  E
|---------------|-------------------------|---------------|-----------------|
|---------------|-------------------------|-5-5----5-5--8-|-----------------|
|-2-2----2-2----|-2-2-2-2-2-2-------------|-4-4----4-4--7-|-5-5----5-5------|
|-2-2----2-2----|-2-2-2-2-2-2-------------|-2-2--0-2-2--5-|-5-5----5-5------|
|-0-0----0-0----|-0-0-0-0-0-0-0-0-0-0-0-0-|---------------|-3-3--2-3-3--2---|
|------3------3-|-------------------------|---------------|-----------------|


  E5          G5  C5               E5          G5  C5
       PM              PM               PM              PM     PM
  E Q  E E Q  E   E Q  E E E E E   E Q  E E Q  E   E Q  E E Q  E
|-------------3-|----------------|-------------3-|----------------|
|-5-5----5-5--3-|----------------|-5-5----5-5--3-|----------------|
|-4-4----4-4--0-|-5-5----2-------|-4-4----4-4--0-|-5-5----5-5-----|
|-2-2--0-2-2----|-5-5------5-4-3-|-2-2--0-2-2----|-5-5----5-5-----|
|---------------|-3-3--2---------|---------------|-3-3--2-3-3--2--|
|---------------|----------------|---------------|----------------|


  D5
  W               W
|---------------|---------------||
|---------------|---------------||
|---------------|---------------||
|---------------|---------------||
|---------------|---------------||
|---------------|---------------||
|
| Gtrs I, II
|      PM              PM
| E Q  E E Q  E   E Q  E E Q  E
|---------------|---------------||
|-3-3----3-3----|-3-3----3-3----||
|-2-2----2-2----|-2-2----2-2----||
|-0-0----0-0----|-0-0----0-0----||
|------3------3-|------3------3-||
|---------------|---------------||


 Chorus
  B5
  Gtr III
   E  E  E  E  +E   E  E  E    +Q     H.
|---------------------------|----------------------|
|---------------------------|----------------------|
|-16-16-14-16-(16)S19-18-19-|-(19)S==12------------|
|---------------------------|----------------------|
|---------------------------|----------------------|
|---------------------------|----------------------|
|
|           PM            PM             PM     PM
|  E  Q     E   E   Q     E     E  Q     E E Q  E
|---------------------------|----------------------|
|---------------------------|----------------------|
|--4--4---------4---4-------|---4--4-------4-4-----|
|--4--4---------4---4-------|---4--4-------4-4-----|
|--2--2-----0---2---2-----0-|---2--2-------2-2-----|
|---------------------------|---3--3-----2-3-3--2--|


  B5
   E  E  E  E  +E   E  E  E    +Q     H.
|---------------------------|---------------------|
|---------------------------|---------------------|
|-16-16-14-16-(16)S19-18-19-|-(19)S==12-----------|
|---------------------------|---------------------|
|---------------------------|---------------------|
|---------------------------|---------------------|
|
|           PM            PM             PM     PM
|  E  Q     E   E   Q     E     E  Q     E E Q  E
|---------------------------|---------------------|
|---------------------------|---------------------|
|--4--4---------4---4-------|---4--4-------4-4----|
|--4--4---------4---4-------|---4--4-------4-4----|
|--2--2-----0---2---2-----0-|---2--2-------2-2----|
|---------------------------|---3--3-----2-3-3--2-|


  B5
   E  E  E  E  +E   E  E  E    +Q     H.
|---------------------------|----------------------|
|---------------------------|----------------------|
|-16-16-14-16-(16)S19-18-19-|-(19)S==12------------|
|---------------------------|----------------------|
|---------------------------|----------------------|
|---------------------------|----------------------|
|
|           PM            PM             PM     PM
|  E  Q     E   E   Q     E     E  Q     E E Q  E
|---------------------------|----------------------|
|---------------------------|----------------------|
|--4--4---------4---4-------|---4--4-------4-4-----|
|--4--4---------4---4-------|---4--4-------4-4-----|
|--2--2-----0---2---2-----0-|---2--2-------2-2-----|
|---------------------------|---3--3-----2-3-3--2--|


  A5                                               F#5
   E Q  +E    E  Q  +E      E Q  +E    E Q  +E     W          Q  Q  H
|------------------------|-----------------------|----------|-------------||
|------------------------|-----------------------|----------|------------o||
|-/9-9--(9)\-/9-/9--(9)\-|-/9-9--(9)\-/9-9--(9)\-|-6--------|-6-----------||
|------------------------|-----------------------|----------|-------------||
|------------------------|-----------------------|----------|------------o||
|------------------------|-----------------------|----------|-------------||
|
|        PM          PM           PM         PM
|  E Q   E    E  Q   E      E Q   E    E Q   E     W          Q  Q  H
|------------------------|-----------------------|----------|-------------||
|------------------------|-----------------------|----------|------------o||
|--2-2--------2--2-------|--2-2--------2-2-------|----------|-------------||
|--2-2--------2--2-------|--2-2--------2-2-------|-4--------|-4-----------||
|--0-0--------0--0-------|--0-0--------0-0-------|-4--------|-4----------o||
|--------3-----------3---|--------3----------3---|-2--------|-2-----------||


 Guitar Solo
  B5                     C5
  Gtr IV
   ~~~                        ~~~~~~~~~
   H.          +E  S S   Q   +Q    +E.   S +S  S S S
|----------------------|-----------------------------|
|----------------------|-----------------------------|
|------------------2---|-2---(2)---(2)---2-(2)-4p2p0-|
|-/4-----------(4)---4-|-----------------------------|
|----------------------|-----------------------------|
|----------------------|-----------------------------|
|
| Gtrs I, II
|        PM        PM            PM              PM
|  E  Q  E E Q     E     E Q     E  E  Q         E
|----------------------|-----------------------------|
|----------------------|-----------------------------|
|--4--4----4-4---------|-5-5--------5--5-------------|
|--4--4----4-4---------|-5-5--------5--5-------------|
|--2--2--0-2-2-----0---|-3-3-----0--3--3---------0---|
|----------------------|-----------------------------|


  B5
        |--3--| |--3--| |--3--|
  E S S E E   E E E   E E E   E
|--------------------------------|
|--------------------------------|
|---0h2h4-2---0-2h4h==5-4p2p==0--|
|-4------------------------------|
|--------------------------------|
|--------------------------------|
|
|           PM              PM
| E Q       E   E   Q       E
|--------------------------------|
|--------------------------------|
|-4-4-----------4---4------------|
|-4-4-----------4---4------------|
|-2-2-------0---2---2-------0----|
|--------------------------------|


  C5                           B5
                               ~
            |--3--|  |--3--|
  E   Q   E E E   E  E E   E   Q    E    S S E S S E  S  S
|----------------------------|-----------------------------|
|---/12s=10-8-7--------------|----------/7-7-7-8-8-8-10-10-|
|-----------------9----------|-----------------------------|
|-4-----------------10-9---7-|----------/4-4-4-5-5-5--7--7-|
|----------------------------|-9---(9)\--------------------|
|----------------------------|-----------------------------|
|
|         PM-------------|               PM           PM
| E   Q   E E   E    E   E     E Q       E   E Q      E
|----------------------------|-----------------------------|
|----------------------------|-----------------------------|
|-5---5----------------------|-4-4-----------4-4-----------|
|-5---5----------------------|-4-4-----------4-4-----------|
|-3---3------------------0---|-2-2-------0---2-2------0----|
|---------0-0---2----3-------|-----------------------------|


  C5
   S  S   E  S  S   S  S  E   S  S  S  S  S  S
|------------------------------------------------|
|-10-10/-13-13-13/-17-17-17/-20-20-20-20-20-20---|
|------------------------------------------------|
|--7--7/-10-10-10/-14-14-14/-17-17-17-17-17-17---|
|------------------------------------------------|
|------------------------------------------------|
|
|                   PM                    PM
|  E      Q         E     E   Q           E
|------------------------------------------------|
|------------------------------------------------|
|--5------5---------------5---5------------------|
|--5------5---------------5---5------------------|
|--3------3---------0-----3---3-----------0------|
|------------------------------------------------|


  F#5                              G5          A5
             ~~~~
                       |-3-|         |--3--|          |--3--|
   S  S  E  +E   E +E  S S S E E     Q   Q Q   E S S  E E   E
|--------------------------------|----------------------------|
|-20-19-19-(19)-/8-(8)-7h8p7s5-7-|-/10---9-8---7h8p7----------|
|--------------------------------|-------------------10-9---8-|
|-17-16-16-(16)------------------|----------------------------|
|--------------------------------|----------------------------|
|--------------------------------|----------------------------|
|
|                PM            PM            PM-----------|
|  E     Q       E  E  Q       E     E Q     E E Q        E
|--------------------------------|----------------------------|
|--------------------------------|----------------------------|
|--------------------------------|-------------2-2--------2---|
|--4-----4----------4--4---------|---5-5-------2-2--------2---|
|--4-----4----------4--4---------|---5-5-------0-0--------0---|
|--2-----2-------0--2--2-------0-|---3-3-----0----------------|


  B5                                    C5
                                                               ~~~~
  S S S S  S S S S S S  S S  S S  S S    Q         E    E     +H
|-------------------------7-----------|-----------10-------------------|
|-----7-8-10-8p7---7h8-10---10p7-10p7-|-10b12====(10)r-10b12-(10)------|
|-7h9------------9--------------------|--------------------------------|
|-------------------------------------|--------------------------------|
|-------------------------------------|--------------------------------|
|-------------------------------------|--------------------------------|
|
|              PM                 PM                    PM           PM
| E   Q        E   E    Q         E      E     Q        E      E  Q  E
|-------------------------------------|--------------------------------|
|-------------------------------------|--------------------------------|
|-4---4------------4----4-------------|--5-----5---------------5--5----|
|-4---4------------4----4-------------|--5-----5---------------5--5----|
|-2---2--------0---2----2---------0---|--3-----3--------0------3--3--0-|
|-------------------------------------|--------------------------------|


  B5
  S S  S S  S S S S  S  S S  S  S  S  S  S
|-------------------------------------------|
|------------------------------------10h12--|
|-------------------------9-12-11s12--------|
|---------------7S9-11h12-------------------|
|--------7-10p9-----------------------------|
|-7-9-10------------------------------------|
|
|               PM                    PM
| E    Q        E    E    Q           E
|-------------------------------------------|
|-------------------------------------------|
|-4----4-------------4----4-----------------|
|-4----4-------------4----4-----------------|
|-2----2--------0----2----2-----------0-----|
|-------------------------------------------|


  C5
   S  S  S  S  S S  S S   E  S  S  S  S  S  S
|----10-14p10-12p9-10-9-----------------------|
|-14------------------------15-17p16p15-19p18p|
|-----------------------/18-------------------|
|---------------------------------------------|
|---------------------------------------------|
|---------------------------------------------|
|
|                   PM------------------|
|  E     Q          E     E  E     E     E
|---------------------------------------------|
|---------------------------------------------|
|--5-----5------------------------------------|
|--5-----5------------------------------------|
|--3-----3-------------------------------0----|
|-------------------0-----0--2-----3----------|


  B5
   |------6-------|
   S  S  S  S  S  S  S  S  S  S  E     +S      +S   +E.    S
|----------------------------------------------------------------|
|-17-15-15-17-15-15----------16-15b17r(15)b17-(15)-(15)---17b19--|
|-------------------16-14-16-------------------------------------|
|----------------------------------------------------------------|
|----------------------------------------------------------------|
|----------------------------------------------------------------|
|
|                          PM                           PM
|  E        Q              E     E      Q               E
|----------------------------------------------------------------|
|----------------------------------------------------------------|
|--4--------4--------------------4------4------------------------|
|--4--------4--------------------4------4------------------------|
|--2--------2--------------0-----2------2---------------0--------|
|----------------------------------------------------------------|


  C5                        B5
                   ~~
   +E.    S  E  E  H        E  E     +E      +E   S  S  S  S     S  S  S  S
|-------------------------|----------------------14----------------14-------|
|-(17)---15-17----15------|---17b19r(17)b19-(17)----17-14-------14----17p14-|
|--------------16---------|-------------------------------16b18-------------|
|-------------------------|-------------------------------------------------|
|-------------------------|-------------------------------------------------|
|-------------------------|-------------------------------------------------|
|
|               PM      PM                    PM                       PM
|   E  Q        E  E Q  E   E  Q              E   E     Q              E
|-------------------------|-------------------------------------------------|
|-------------------------|-------------------------------------------------|
|---5--5-----------5-5----|-------------------------------------------------|
|---5--5-----------5-5----|-4--4------------------4-----4-------------------|
|---3--3--------0--3-3--0-|-4--4------------------4-----4-------------------|
|-------------------------|-2--2--------------0---2-----2--------------0----|


  G5                A5
   E     E  S  S  E  E     E     +E   S  S
|-------14-18p14---------------------14-17-|
|-17b19----------14-17b19-17b19-(17)-------|
|------------------------------------------|
|------------------------------------------|
|------------------------------------------|
|------------------------------------------|
|
|                 PM-----------------|
|  E     Q        E  E     Q          E
|------------------------------------------|
|------------------------------------------|
|--------------------2-----2----------2----|
|--5-----5-----------2-----2----------2----|
|--5-----5-----------0-----0----------0----|
|--3-----3--------0------------------------|


                          |-----------3-----------|
   Q           +Q         Q          Q            Q
|-17b19r======(17)-------17b19======17b19--------17b19-----|
|-----------------------------------17b19========17b19-----|
|----------------------------------------------------------|
|----------------------------------------------------------|
|----------------------------------------------------------|
|----------------------------------------------------------|
|
|  PM-------------------------------------------------------
|  S    S S S   S  S S S  S     S S        S S S       S S
|----------------------------------------------------------|
|----------------------------------------------------------|
|----------------------------------------------------------|
|----------------------------------------------------------|
|--2----2-2-2---2--2-0-0--2-----2-2--------2-2-2-------0-0-|
|----------------------------------------------------------|


   |----------3----------|       |----------3-----------|
   Q         Q           Q       Q          Q           Q
|-17b19-----17b19-------17r-----19b21======19b21-------19r-------|
|-17b19-----17b19-------17r--------------------------------------|
|----------------------------------------------------------------|
|----------------------------------------------------------------|
|----------------------------------------------------------------|
|----------------------------------------------------------------|
|
|------------------------------------------------------------|
|  S    S S       S S S     S S  S     S S       S S S     S S
|----------------------------------------------------------------|
|----------------------------------------------------------------|
|----------------------------------------------------------------|
|----------------------------------------------------------------|
|--3----3-3-------3-3-3-----0-0--3-----3-3-------3-3-3-----0-0---|
|----------------------------------------------------------------|


   Q.              +E    E      E    E    E
|-19b22-----------(19)s==2\---------19--------|
|-----------------------------/19--------19---|
|---------------------------------------------|
|---------------------------------------------|
|---------------------------------------------|
|---------------------------------------------|
|
|  PM------------------------------------------
|  S    S S S S S   S  S S  S   S S  S S  S S
|---------------------------------------------|
|---------------------------------------------|
|---------------------------------------------|
|---------------------------------------------|
|--2----2-2-2-2-2---0--0-2--2---2-2--2-2--0-0-|
|---------------------------------------------|


                               |--3--|
   E       E    S  S  S  S  E  S  S  S  S  S  S  S
|-22b24---22---19----22p19----24p19----22p19-------|
|-----------------22-------22-------22-------22p19-|
|--------------------------------------------------|
|--------------------------------------------------|
|--------------------------------------------------|
|--------------------------------------------------|
|
|--------------------------------------------|
|  S    S  S S  S  S  S  S  E  E        E     E
|--------------------------------------------------|
|--------------------------------------------------|
|--------------------------------------------------|
|--------------------------------------------------|
|--3----3--3-3--3--3--3--3--------------------0----|
|---------------------------0--2--------3----------|


  B5
  E  S  S      +S   S  S      +S    S  S  S  S  S  S  S  S
|---17-------------18--------------------19p14----17-------|
|------17b19==(17)----17pb19-(17)r-15h17-------15----17p15-|
|----------------------------------------------------------|
|----------------------------------------------------------|
|----------------------------------------------------------|
|----------------------------------------------------------|
|
|                      PM                             PM
| E  Q                 E            E     Q           E
|----------------------------------------------------------|
|----------------------------------------------------------|
|-4--4------------------------------4-----4----------------|
|-4--4------------------------------4-----4----------------|
|-2--2-----------------0------------2-----2-----------0----|
|----------------------------------------------------------|


  C5
   S  S  S  S   E  S  S  S  S  S  S  S  S  S  S
|--------------------14-------------17p14-------|
|----15-------/12s14----14p12----12----------17-|
|-16----16p14-----------------14----------16----|
|-----------------------------------------------|
|-----------------------------------------------|
|-----------------------------------------------|
|
|                  PM                      PM
|  E     Q         E     E     Q           E
|-----------------------------------------------|
|-----------------------------------------------|
|--5-----5---------------5-----5----------------|
|--5-----5---------------5-----5----------------|
|--3-----3---------0-----3-----3-----------0----|
|-----------------------------------------------|


  B5
                                    ~~~~~
   S  S  S  S  E     +E       +E    Q.
|------------------------------------------|
|----------------------------------17------|
|-14-14-14-16-16b18r(16)b18==(16)-(16)r----|
|------------------------------------------|
|------------------------------------------|
|------------------------------------------|
|
|                     PM                 PM
|  E     Q            E        E    Q    E
|------------------------------------------|
|------------------------------------------|
|------------------------------------------|
|--4-----4---------------------4----4------|
|--4-----4---------------------4----4------|
|--2-----2------------0--------2----2----0-|


  G5                    A5
   Q       +E  E  a       E   E  E E
|------------------------------------||
|------------------------------------||
|-15b19---(15)---15pb17r(15)-12------||
|-------------------------------/9-7-||
|------------------------------------||
|------------------------------------||
|
|              PM------------------|
|  E    Q      E          E   Q    E
|------------------------------------||
|------------------------------------||
|-------------------------2---2----2-||
|--5----5-----------------2---2----2-||
|--5----5-----------------0---0----0-||
|--3----3------0---------------------||


  B5
  Gtr IV
   ~~
   W                            W
|---------------------------|---------------------|
|---------------------------|---------------------|
|---------------------------|---------------------|
|--9------------------------|---------------------|
|---------------------------|---------------------|
|---------------------------|---------------------|
|
| Gtr III
|  E  E  E  E  +E   E  E  E    +Q     H.
|---------------------------|---------------------|
|---------------------------|---------------------|
|-16-16-14-16-(16)S19-18-19-|-(19)S==12-----------|
|---------------------------|---------------------|
|---------------------------|---------------------|
|---------------------------|---------------------|
|
| Gtrs I, II
|           PM            PM             PM     PM
|  E  Q     E   E   Q     E     E  Q     E E Q  E
|---------------------------|---------------------|
|---------------------------|---------------------|
|--4--4---------4---4-------|---4--4-------4-4----|
|--4--4---------4---4-------|---4--4-------4-4----|
|--2--2-----0---2---2-----0-|---2--2-------2-2----|
|---------------------------|---3--3-----2-3-3--2-|


  B5
   W                            W
|---------------------------|----------------------|
|---------------------------|----------------------|
|---------------------------|----------------------|
|---------------------------|----------------------|
|---------------------------|----------------------|
|---------------------------|----------------------|
|
|  E  E  E  E  +E   E  E  E    +Q     H.
|---------------------------|----------------------|
|---------------------------|----------------------|
|-16-16-14-16-(16)S19-18-19-|-(19)S==12------------|
|---------------------------|----------------------|
|---------------------------|----------------------|
|---------------------------|----------------------|
|
|           PM            PM             PM     PM
|  E  Q     E   E   Q     E     E  Q     E E Q  E
|---------------------------|----------------------|
|---------------------------|----------------------|
|--4--4---------4---4-------|---4--4-------4-4-----|
|--4--4---------4---4-------|---4--4-------4-4-----|
|--2--2-----0---2---2-----0-|---2--2-------2-2-----|
|---------------------------|---3--3-----2-3-3--2--|


  B5
  Gtr III
   E  E  E  E  +E   E  E  E    +Q     H.
|---------------------------|---------------------|
|---------------------------|---------------------|
|-16-16-14-16-(16)S19-18-19-|-(19)S==12-----------|
|---------------------------|---------------------|
|---------------------------|---------------------|
|---------------------------|---------------------|
|
| Gtrs I, II
|           PM            PM             PM     PM
|  E  Q     E   E   Q     E     E  Q     E E Q  E
|---------------------------|---------------------|
|---------------------------|---------------------|
|--4--4---------4---4-------|---4--4-------4-4----|
|--4--4---------4---4-------|---4--4-------4-4----|
|--2--2-----0---2---2-----0-|---2--2-------2-2----|
|---------------------------|---3--3-----2-3-3--2-|


  B5
   E  E  E  E  +E   E  E  E    +Q     H.
|---------------------------|----------------------|
|---------------------------|----------------------|
|-16-16-14-16-(16)S19-18-19-|-(19)S==12------------|
|---------------------------|----------------------|
|---------------------------|----------------------|
|---------------------------|----------------------|
|
|           PM            PM             PM     PM
|  E  Q     E   E   Q     E     E  Q     E E Q  E
|---------------------------|----------------------|
|---------------------------|----------------------|
|--4--4---------4---4-------|---4--4-------4-4-----|
|--4--4---------4---4-------|---4--4-------4-4-----|
|--2--2-----0---2---2-----0-|---2--2-------2-2-----|
|---------------------------|---3--3-----2-3-3--2--|


  B5
  Gtr V
   E  E  E  E  +E   E  E  E    +Q     H.
|---------------------------|---------------------|
|-15-15-14-15-(15)-19-17-19-|-(19)\--12-----------|
|-16-16-14-16-(16)-19-18-19-|-(19)S==12-----------|
|---------------------------|---------------------|
|---------------------------|---------------------|
|---------------------------|---------------------|
|  E  E  E  E  +E   E  E  E    +Q     H.
|
| Gtrs I, II
|           PM            PM             PM     PM
|  E  Q     E   E   Q     E     E  Q     E E Q  E
|---------------------------|---------------------|
|---------------------------|---------------------|
|--4--4---------4---4-------|---4--4-------4-4----|
|--4--4---------4---4-------|---4--4-------4-4----|
|--2--2-----0---2---2-----0-|---2--2-------2-2----|
|---------------------------|---3--3-----2-3-3--2-|


  B5
   E  E  E  E  +E   E  E  E    +Q     H.
|---------------------------|----------------------|
|-15-15-14-15-(15)-19-17-19-|-(19)\--12------------|
|-16-16-14-16-(16)-19-18-19-|-(19)S==12------------|
|---------------------------|----------------------|
|---------------------------|----------------------|
|---------------------------|----------------------|
|  E  E  E  E  +E   E  E  E    +Q     H.
|
|           PM            PM             PM     PM
|  E  Q     E   E   Q     E     E  Q     E E Q  E
|---------------------------|----------------------|
|---------------------------|----------------------|
|--4--4---------4---4-------|---4--4-------4-4-----|
|--4--4---------4---4-------|---4--4-------4-4-----|
|--2--2-----0---2---2-----0-|---2--2-------2-2-----|
|---------------------------|---3--3-----2-3-3--2--|


  B5
   E  E  E  E  +E   E  E  E    +Q     H.
|---------------------------|---------------------|
|-15-15-14-15-(15)-19-17-19-|-(19)\--12-----------|
|-16-16-14-16-(16)-19-18-19-|-(19)S==12-----------|
|---------------------------|---------------------|
|---------------------------|---------------------|
|---------------------------|---------------------|
|  E  E  E  E  +E   E  E  E    +Q     H.
|
|           PM            PM             PM     PM
|  E  Q     E   E   Q     E     E  Q     E E Q  E
|---------------------------|---------------------|
|---------------------------|---------------------|
|--4--4---------4---4-------|---4--4-------4-4----|
|--4--4---------4---4-------|---4--4-------4-4----|
|--2--2-----0---2---2-----0-|---2--2-------2-2----|
|---------------------------|---3--3-----2-3-3--2-|


  A5
    E  Q   +E     E  Q    E
|-----------------------------|
|-/10-10--(10)\-/10-10--(10)\-|
|--/9--9---(9)---/9--9---(9)\-|
|-----------------------------|
|-----------------------------|
|-----------------------------|
|   E  Q   +E     E  Q    E
|
|           PM            PM
|   E  Q    E     E  Q    E
|-----------------------------|
|-----------------------------|
|---2--2----------2--2--------|
|---2--2----------2--2--------|
|---0--0----------0--0--------|
|-----------3-------------3---|


  A5                            F#5
    E  Q   +E     E  Q    E     W          Q  Q  H
|-----------------------------|----------|------------*|
|-/10-10--(10)\-/10-10--(10)\-|-7--------|-7----------*|
|--/9--9---(9)---/9--9---(9)\-|-6--------|-6----------*|
|-----------------------------|----------|------------*|
|-----------------------------|----------|------------*|
|-----------------------------|----------|------------*|
|   E  Q   +E     E  Q    E     W          Q  Q  H
|
|           PM            PM
|   E  Q    E     E  Q    E     W          Q  Q  H
|-----------------------------|----------|------------*|
|-----------------------------|----------|------------*|
|---2--2----------2--2--------|----------|------------*|
|---2--2----------2--2--------|-4--------|-4----------*|
|---0--0----------0--0--------|-4--------|-4----------*|
|-----------3-------------3---|-2--------|-2----------*|



Duration Legend
---------------
W - whole; H - half; Q - quarter; E - 8th; S - 16th; T - 32nd; X - 64th; a - acciaccatura
+ - note tied to previous; . - note dotted; .. - note double dotted
Uncapitalized letters represent notes that are staccato (1/2 duration)
Irregular groupings are notated above the duration line
Duration letters will always appear directly above the note/fret number it represents the
duration for.  Duration letters with no fret number below them represent rests.  Multi-
bar rests are notated in the form Wxn, where n is the number of bars to rest for.  Low
melody durations appear below the staff

Tablature Legend
----------------
 h   - hammer-on
 p   - pull-off
 b   - bend
 pb  - pre-bend
 r   - bend release (if no number after the r, then release immediately)
 /\  - slide into or out of (from/to "nowhere")
 s   - legato slide
 S   - shift slide
 - natural harmonic
[n]  - artificial harmonic
n(n) - tapped harmonic
 ~   - vibrato
 tr  - trill
 T   - tap
 TP  - trem. picking
 PM  - palm muting
\n/  - tremolo bar dip; n = amount to dip
 \n  - tremolo bar down
 n/  - tremolo bar up
/n\  - tremolo bar inverted dip
 =   - hold bend; also acts as connecting device for hammers/pulls
 <> - volume swell (louder/softer)
 x   - on rhythm slash represents muted slash
 o   - on rhythm slash represents single note slash

Misc Legend
-----------
 |  - bar
||  - double bar
||o - repeat start
o|| - repeat end
*|  - double bar (ending)
 :  - bar (freetime)
 $  - Segno
 &  - Coda
Tempo markers -  = BPM(8/16=s8/s16), where s8 = swing 8ths, s16 = swing 16ths

Tap to rate this tab
# A B C D E F G H I J K L M N O P Q R S T U V W X Y Z