Song name
# A B C D E F G H I J K L M N O P Q R S T U V W X Y Z

Megadeth - Have Cool Will Travel tab

#----------------------------------PLEASE NOTE---------------------------------#
#This file is the author's own work and represents their interpretation of the #
#song. You may only use this file for private study, scholarship, or research. #
#------------------------------------------------------------------------------#

HAVE COOL, WILL TRAVEL
As recorded by Megadeth
(From the 1997 Album CRYPTIC WRITINGS)

Transcribed by zwilling99
	

Words and Music by Dave Mustaine

Gtr I (E A D G B E) - 'Distorted Rhythm Guitar I'
Gtr II (E A D G B E) - 'Distorted Rhythm Guitar II'
Gtr III (E A D G B E) - 'Clean Guitar (w/tremolo effect)'
Gtr IV (E A D G B E) - 'Distorted Lead Guitar'
Gtr V (E A D G B E) - 'Distorted Slide Guitar'

   Intro
    Moderate Rock Q=102
    E5          N.A5 A#B5  E5          N.A5 A#G5
   4/4
    Gtrs I, II
    S S S S Q   S E. E E   S S S S Q   S E. E E
||-----------------------|-----------------------||
||o----------------------|----------------------o||
||-----------------------|--------------------7--||
||--9-9-9-9-9\--x--------|-9-9-9-9-9\--x------5--||
||o-7-7-7-7-7\--x-7--8-9-|-7-7-7-7-7\--x-7--8---o||
||--------------x-5--6-7-|-------------x-5--6----||


   Verse
    E5          N.A5 A#B5  E5          N.A5 A#B5  E5          N.A5 A#B5
    S S S S Q   S E. E E   S S S S Q   S E. E E   S S S S Q   S E. E E
||-----------------------|----------------------|----------------------|
||o----------------------|----------------------|----------------------|
||-----------------------|--------------------7-|----------------------|
||--9-9-9-9-9\--x--------|-9-9-9-9-9\--x------5-|-9-9-9-9-9\--x--------|
||o-7-7-7-7-7\--x-7--8-9-|-7-7-7-7-7\--x-7--8---|-7-7-7-7-7\--x-7--8-9-|
||--------------x-5--6-7-|-------------x-5--6---|-------------x-5--6-7-|


  E5          N.A5 A#G5  E5          N.A5 A#B5  E5          N.A5 A#G5
  S S S S Q   S E. E E   S S S S Q   S E. E E   S S S S Q   S E. E E
|----------------------|----------------------|-----------------------|
|----------------------|----------------------|-----------------------|
|--------------------7-|----------------------|--------------------7--|
|-9-9-9-9-9\--x------5-|-9-9-9-9-9\--x--------|-9-9-9-9-9\--x------5--|
|-7-7-7-7-7\--x-7--8---|-7-7-7-7-7\--x-7--8-9-|-7-7-7-7-7\--x-7--8----|
|-------------x-5--6---|-------------x-5--6-7-|-------------x-5--6----|


  E5          N.A5 A#B5  E5          N.C.    E5  N.C.
                                     PM----|     PM
  S S S S Q   S E. E E   S S S S Q   S S S S S E S
|----------------------|---------------------------||
|----------------------|---------------------------||
|----------------------|---------------------------||
|-9-9-9-9-9\--x--------|-9-9-9-9-9\----------------||
|-7-7-7-7-7\--x-7--8-9-|-7-7-7-7-7\--2-0-----2-----||
|-------------x-5--6-7-|-----------------3-2-0---2-||


 Pre-Chorus
  N.C.(F#m)
      PM    PM    PM    PM
  S S S S S S S S S S S S S S S S
|---------------------------------|
|---------------------------------|
|---------------------------------|
|-4-----2-------------------------|
|-------------4-----3-----2-------|
|-----2-----2-----2-----2-----5p2-|


      PM    PM    PM    PM              PM    PM    PM    PM
  S S S S S S S S S S S S S S S S   S S S S S S S S S S S S S S S S
|---------------------------------|---------------------------------|
|---------------------------------|---------------------------------|
|---------------------------------|---------------------------------|
|-4-----2-------------------------|-4-----2-------------------------|
|-------------4-----3-----2-------|-------------4-----3-----2-------|
|-----2-----2-----2-----2-----5p2-|-----2-----2-----2-----2-----5p2-|


  Gtr I
      PM    PM    PM    PM
  S S S S S S S S S S S S S S S S
|---------------------------------||
|---------------------------------||
|---------------------------------||
|-4-----2-------------------------||
|-------------4-----3-----2-------||
|-----2-----2-----2-----2-----5p2-||
|
| Gtr II
| S S S S S S S S S S S S S S S S
|---------------------------------||
|---------------------------------||
|---------------------------------||
|-x-x-x-x-x-x-x-x-x-x-x-x-x-x-x-x-||
|-x-x-x-x-x-x-x-x-x-x-x-x-x-x-x-x-||
|-x-x-x-x-x-x-x-x-x-x-x-x-x-x-x-x-||


  1.
  E5          N.A5 A#B5  E5          N.A5 A#G5
  S S S S Q   S E. E E   S S S S Q   S E. E E
|----------------------|------------------------||
|----------------------|-----------------------o||
|----------------------|--------------------7---||
|-9-9-9-9-9\--x--------|-9-9-9-9-9\--x------5---||
|-7-7-7-7-7\--x-7--8-9-|-7-7-7-7-7\--x-7--8----o||
|-------------x-5--6-7-|-------------x-5--6-----||
|
| S S S S Q   S E. E E   S S S S Q   S E. E E
|----------------------|------------------------||
|----------------------|-----------------------o||
|----------------------|--------------------7---||
|-9-9-9-9-9\--x--------|-9-9-9-9-9\--x------5---||
|-7-7-7-7-7\--x-7--8-9-|-7-7-7-7-7\--x-7--8----o||
|-------------x-5--6-7-|-------------x-5--6-----||


 Chorus
  2.
  E5                G5                C5                A5
  Gtr III
  E E E E E E E E   E E E E E E E E   E E E E E E E E   E E E E E E E E
|-----------------|-----------------|-------2---3-----|---------7-------|
|-------7---8-----|-------7---5-----|-----1---1---1---|-------8---8-----|
|-----9---9---9---|-----7---7---7---|---0-----------0-|-----6-------6-0-|
|---9-----------9-|---5-----------5-|-----------------|---7-------------|
|-7---------------|-5---------------|-3---------------|-0---------------|
|-----------------|-----------------|-----------------|-----------------|
|
| Gtrs I, II
| W                 W                 W                 W
|-----------------|-----------------|-----------------|-----------------|
|-----------------|-----------------|-----------------|-----------------|
|-----------------|-----------------|-----------------|-2---------------|
|-9---------------|-----------------|-5---------------|-2---------------|
|-7---------------|-5---------------|-3---------------|-0---------------|
|-----------------|-3---------------|-----------------|-----------------|


  E5                G5
  E E E E E E E E   E E E E E E E E
|-----------------|-----------------|
|-------7---8-----|-------7---5-----|
|-----9---9---9---|-----7---7---7---|
|---9-----------9-|---5-----------5-|
|-7---------------|-5---------------|
|-----------------|-----------------|
|
| W                 W
|-----------------|-----------------|
|-----------------|-----------------|
|-----------------|-----------------|
|-9---------------|-----------------|
|-7---------------|-5---------------|
|-----------------|-3---------------|


  C5                A5      N.C.
  E E E E E E E E   E E E E E     E     E     E
|-------2---3-----|---------7------------------------||
|-----1---1---1---|-------8-------8------------------||
|---0-----------0-|-----6---------------6-----0------||
|-----------------|---7------------------------------||
|-3---------------|-0--------------------------------||
|-----------------|----------------------------------||
|
|                           |-3-| |-3-| |-3-| |-3-|
| W                 H       S S S S S S S S S S S S
|-----------------|----------------------------------||
|-----------------|----------------------------------||
|-----------------|-2-------x-x-x-x-x-x-x-x-x-x-x-x--||
|-5---------------|-2-------x-x-x-x-x-x-x-x-x-x-x-x--||
|-3---------------|-0-------x-x-x-x-x-x-x-x-x-x-x-x--||
|-----------------|----------------------------------||


 Guitar Solo 1
  E5    D5    E5         G5    E5  D5    E5       D5       E5           G5    E5      D5
  Gtr IV
  Q       E   S S  H                      +Q         S  E.      +Q             +Q
|--------------------------------------|------------12------------------------------------|
|-------------x-x-14b15================|=(14)----------14------(14)b17========(14)r-------|
|-------------x-x----------------------|--------------------------------------------------|
|--------------------------------------|--------------------------------------------------|
|--------------------------------------|--------------------------------------------------|
|--------------------------------------|--------------------------------------------------|
|
| Gtrs I, II
|     PM    PM     PM        PM                 PM      PM       PM         PM
| S S S S S S S S  S     S S S S S S S     S  S S S  S  S  S S   S      S S S   S   S S S
|--------------------------------------|--------------------------------------------------|
|--------------------------------------|--------------------------------------------------|
|--------------------------------------|--------------------------------------------------|
|------------------------5---5---------|--------------------------------5---5-------------|
|-7---7-5---5-7----7-----5---5-7---5---|---7----7-5-----5--7-----7------5---5---7-----5---|
|-7---7-5---5-7----7-----------7---5---|---7----7-5-----5--7-----7--------------7-----5---|


  E5                          D5           E5         G5                  E5   D5
                                                                           ~~
   |---3---|          |-3--|
   S  S    S  a      +S   +E     +E         +E      S  S  a      +S   +S   E    +E
|-12-----------------------------------------------15-------------------------------------|
|----15p==12------------------------------------------15----------------------------------|
|------------14b16==(14)r(14)---(14)b16====(14)r---------14b16==(14)r(14)-12---(12)\------|
|-----------------------------------------------------------------------------------------|
|-----------------------------------------------------------------------------------------|
|-----------------------------------------------------------------------------------------|
|
|                     PM                 PM         PM                 PM
|  S    S             S       S   S      S   S   S  S  S          S    S   S S   S   S
|-----------------------------------------------------------------------------------------|
|-----------------------------------------------------------------------------------------|
|-----------------------------------------------------------------------------------------|
|------------------------------------------------------5---------------5------------------|
|--7------------------7-------5----------5---7------7--5---------------5---7-----5--------|
|--7------------------7-------5----------5---7------7----------------------7-----5--------|


  E5         D5              E5               G5              E5         D5
        |---3---|  |---3---|  |---3---|  |---3---|  |---3---|  |---3---|  |---3---|
  S  S  S  S    S  S  S    S  S  S    S  S  S    S  S  S    S  S  S    S  S  S    S
|----------------------------------------------------------------12---14-15p14---12-||
|-------------------------------------------------------------14--------------------||
|-x------------12---------------12------16-12------12-14---15-----------------------||
|-x-------12---------12---13-14------14---------14----------------------------------||
|---12-14---------14----------------------------------------------------------------||
|-----------------------------------------------------------------------------------||
|
| Gtr V
| W
|-----------------------------------------------------------------------------------||
|-----------------------------------------------------------------------------------||
|-----------------------------------------------------------------------------------||
|-----------------------------------------------------------------------------------||
|-----------------------------------------------------------------------------------||
|-----------------------------------------------------------------------------------||
|
| Gtrs I, II
|       PM              PM               PM              PM
| S  S  S    S     S    S     S    S     S    S     S    S     S    S     S    S
|-----------------------------------------------------------------------------------||
|-----------------------------------------------------------------------------------||
|-----------------------------------------------------------------------------------||
|---------------------------------------------5----------5--------------------------||
|-7-----7----5----------5-----7----------7----5----------5-----7----------5---------||
|-7-----7----5----------5-----7----------7---------------------7----------5---------||


 Harmonica Solo 1
     N.C.(F#m)
      ~~~
      W
|----14------------------------------------|
|------------------------------------------|
|------------------------------------------|
|------------------------------------------|
|------------------------------------------|
|------------------------------------------|
|
|     ~~~
|  a  H.                      E.      +S
|------------------------------------------|
|-17s19----------------------19------(19)s=|
|------------------------------------------|
|------------------------------------------|
|------------------------------------------|
|------------------------------------------|
|
|          ~
|     S  S E S S S S S S S S  S  S S   S
|------------------------------------------|
|------------------------------------------|
|------------------------------------------|
|-----4--5-4---------2---------------------|
|--------------2-3-4---4-3-0--3--2---------|
|----------------------------------5---0---|


  Gtr V
   ~~~                                         ~~~
   H.                      S  E.        +E     Q.          +Q.            S  S
|------------------------------------|-----------------------------------------|
|-17----------------------15s17------|-(17)s==14----------(14)-----------------|
|------------------------------------|-----------------------------------16-15-|
|------------------------------------|-----------------------------------------|
|------------------------------------|-----------------------------------------|
|------------------------------------|-----------------------------------------|
|
| Gtrs I, II
|       ~                                      ~~~
|  S  S E S S S S S S S S  S  S  S S     S  S  E  S S S S   S  S S S S S  S  S
|------------------------------------|-----------------------------------------|
|------------------------------------|-----------------------------------------|
|------------------------------------|-----------------------------------------|
|--4--5-4---------2------------------|---4--5--4------------2------------------|
|-----------2-3-4---4-3-0--3--2------|--------------2-3-4------4-3-0-3-2-------|
|--------------------------------5-0-|------------------------------------5--0-|


              ~~~~~~~~~~~~
   E    E  S  E.      +H
|---------------------------------------||
|---------------------------------------||
|-16s==15-15----------------------------||
|------------16------(16)---------------||
|---------------------------------------||
|---------------------------------------||
|
|       ~~
|  S S  E  S  S  S S   S  S S S S S S S
|---------------------------------------||
|---------------------------------------||
|---------------------------------------||
|--4-5--4--------------2----------------||
|-------------2--3-4------4-3-0-3-2-----||
|-----------------------------------5-0-||


 Guitar Solo 2
  E5      D5          E5        G5      E5    D5
  Gtr IV
  E.      S    +E     E     E.      S   +E    S S
|-------------------------------------------------|
|-------------------------------------------------|
|-2b4-----2b4==(2)r---2b4---2b4-----2b4r(2)---1-2-|
|-------------------------------------------------|
|-------------------------------------------------|
|-------------------------------------------------|
|
| Gtrs I, II
|       PM          PM      PM      PM
| S   S S S     S   S S   S S   S S S    S  S S S
|-------------------------------------------------|
|-------------------------------------------------|
|-------------------------------------------------|
|-------------------------------5---5-------------|
|-7-----7-5---------5-7-----7---5---5----7----5---|
|-7-----7-5---------5-7-----7------------7----5---|


  E5       D5         E5    G5     E5   D5
  E   E      +Q           E    E   E.     S
|-------------------------------------------|
|-------------------------------------------|
|-2---1tr2---(1tr2)-------2s==16s==4\-------|
|-----------------------------------------0-|
|-------------------------------------------|
|-------------------------------------------|
|
|     PM            PM    PM     PM
| S S S    S  S     S S S S S  S S S  S S S
|-------------------------------------------|
|-------------------------------------------|
|-------------------------------------------|
|---------------------------5----5----------|
|-7---7----5--------5-7---7-5----5-7----5---|
|-7---7----5--------5-7---7--------7----5---|


  E5     D5     E5    G5    E5   D5
  ~~       ~~
  E.     S E.     S S S S S Q
|------------------------------------|
|------------------------------------|
|------------------------------------|
|-3------0-2-------------------------|
|-----------------3-5-2-3---2/-------|
|-------------------------5----------|
|
|      PM     PM    PM    PM
| S  S S S S  S S S S S S S S  S S S
|------------------------------------|
|------------------------------------|
|------------------------------------|
|---------------------5---5----------|
|-7----7-5----5-7---7-5---5-7----5---|
|-7----7-5----5-7---7-------7----5---|


  E5             D5        E5         G5      E5    D5
   T  T  S  T  T  S T  T S T T S T  T S T T S T T S T T S
|---------------------------------------------------------||
|-12h13p12-10h12p10-9h10p9-5h9p6-9h10p9-6h8p6-5h7p5-3h5p3-||
|---------------------------------------------------------||
|---------------------------------------------------------||
|---------------------------------------------------------||
|---------------------------------------------------------||
|
|           PM           PM      PM         PM
|  S     S  S     S S    S S   S S    S S   S S   S S   S
|---------------------------------------------------------||
|---------------------------------------------------------||
|---------------------------------------------------------||
|-------------------------------------5-----5-------------||
|--7--------7-----5------5-7-----7----5-----5-7-----5-----||
|--7--------7-----5------5-7-----7------------7-----5-----||


 Harmonica Solo 2
  N.C.(F#m)
  Gtr V
   S    S  Q.              +Q         +Q
|-------------------------------------------------|
|-------------------------------------------------|
|-11s==12s11--------------(11)-------(11)s========|
|-------------------------------------------------|
|-------------------------------------------------|
|-------------------------------------------------|
|
| Gtr IV
|  T T  S  E    +H                    +E    +E
|-------------------------------------------------|
|--2h3p=2--2----(2)-------------------(2)---(2)---|
|----------4b6==(4)-------------------(4)r==(4)---|
|-------------------------------------------------|
|-------------------------------------------------|
|-------------------------------------------------|
|
| Gtrs I, II
|          ~~~~~
|  S    S  E     S  S S S   S  S S S   S  S  S  S
|-------------------------------------------------|
|-------------------------------------------------|
|-------------------------------------------------|
|--4----5--4----------------2---------------------|
|-------------------2-3-4------4-3-0---3--2-------|
|--------------------------------------------5--0-|


                                             ~~~~~~~~~~~~~~~~
  H.                     +Q           S   S  Q.          +Q         Q
|----------------------------------|----------------------------------------------|
|----------------------------------|----------------------------------------------|
|-9----------------------(9)s======|=15s=16s15----------(15)-------15s============|
|----------------------------------|----------------------------------------------|
|----------------------------------|----------------------------------------------|
|----------------------------------|----------------------------------------------|
|
| >                                                                 <
| ~~
| W                                  +H.                            Q
|----------------------------------|----------------------------------------------|
|----------------------------------|----------------------------------------------|
|-4--------------------------------|-(4)---------------------------[4]b6==========|
|----------------------------------|----------------------------------------------|
|----------------------------------|----------------------------------------------|
|----------------------------------|----------------------------------------------|
|
|      ~                                     ~~~
| S  S E S S S S S S S S  S  S S S    S   S  E  S S S S   S  S S S  S     S S S
|----------------------------------|----------------------------------------------|
|----------------------------------|----------------------------------------------|
|----------------------------------|----------------------------------------------|
|-4--5-4---------2-----------------|--4---5--4------------2-----------------------|
|----------2-3-4---4-3-0--3--2-----|--------------2-3-4------4-3-0--3-----2-------|
|------------------------------5-0-|----------------------------------------5-0---|


   ~~~~
   H                H
|-----------------------------------||
|-----------------------------------||
|-18---------------19s==============||
|-----------------------------------||
|-----------------------------------||
|-----------------------------------||
|
|  ~~~~
| +W
|-----------------------------------||
|-----------------------------------||
|-(4)r------------------------------||
|-----------------------------------||
|-----------------------------------||
|-----------------------------------||
|
|        ~
|  S   S E S S S S  S S S S S S S S
|-----------------------------------||
|-----------------------------------||
|-----------------------------------||
|--4---5-4----------2---------------||
|------------2-3-4----4-3-0-3-2-----||
|-------------------------------5-0-||


 Chorus 2
  E5
   |---3---|  |---3---|  |---3---|  |---3---|
   e  e    e  e  e    e  e  e    e  e  e    e
|----------------------------------------------|
|----------------------------------------------|
|-21-21---21-21-21---21-21-21---21-21-21---21--|
|----------------------------------------------|
|----------------------------------------------|
|----------------------------------------------|
|
| Gtr III
|  E    E     E    E     E    E     E    E
|----------------------------------------------|
|------------------7----------8----------------|
|-------------9----------9----------9----------|
|-------9--------------------------------9-----|
|--7-------------------------------------------|
|----------------------------------------------|
|
|  W
|----------------------------------------------|
|----------------------------------------------|
|----------------------------------------------|
|--9-------------------------------------------|
|--7-------------------------------------------|
|----------------------------------------------|


  G5                C5                A5
  Gtr III
  E E E E E E E E   E E E E E E E E   E E E E E E E E
|-----------------|-------2---3-----|---------7-------|
|-------7---5-----|-----1---1---1---|-------8---8-----|
|-----7---7---7---|---0-----------0-|-----6-------6-0-|
|---5-----------5-|-----------------|---7-------------|
|-5---------------|-3---------------|-0---------------|
|-----------------|-----------------|-----------------|
|
| Gtrs I, II
| W                 W                 W
|-----------------|-----------------|-----------------|
|-----------------|-----------------|-----------------|
|-----------------|-----------------|-2---------------|
|-----------------|-5---------------|-2---------------|
|-5---------------|-3---------------|-0---------------|
|-3---------------|-----------------|-----------------|


  E5                G5                C5                A5
  E E E E E E E E   E E E E E E E E   E E E E E E E E   E E E E E E E E
|-----------------|-----------------|-------2---3-----|---------7-------|
|-------7---8-----|-------7---5-----|-----1---1---1---|-------8---8-----|
|-----9---9---9---|-----7---7---7---|---0-----------0-|-----6-------6-0-|
|---9-----------9-|---5-----------5-|-----------------|---7-------------|
|-7---------------|-5---------------|-3---------------|-0---------------|
|-----------------|-----------------|-----------------|-----------------|
|
| W                 W                 W                 W
|-----------------|-----------------|-----------------|-----------------|
|-----------------|-----------------|-----------------|-----------------|
|-----------------|-----------------|-----------------|-2---------------|
|-9---------------|-----------------|-5---------------|-2---------------|
|-7---------------|-5---------------|-3---------------|-0---------------|
|-----------------|-3---------------|-----------------|-----------------|


  E5                G5
  Gtr V
  W                 Q   E  E  E  E Q
|-----------------|----------------0---|
|-----------------|-------19-19s17-----|
|-----------------|--------------------|
|-----------------|--------------------|
|-----------------|--------------------|
|-----------------|--------------------|
|
| Gtr III
| E E E E E E E E   E E E  E  E  E E E
|-----------------|--------------------|
|-------7---8-----|--------7-----5-----|
|-----9---9---9---|-----7-----7----7---|
|---9-----------9-|---5--------------5-|
|-7---------------|-5------------------|
|-----------------|--------------------|
|
| Gtrs I, II
| W                 W
|-----------------|--------------------|
|-----------------|--------------------|
|-----------------|--------------------|
|-9---------------|--------------------|
|-7---------------|-5------------------|
|-----------------|-3------------------|


  C5                        A5
                                    ~~~~~~~~~
  +Q.      E  +E   Q.        +Q     Q     H
|-(0)---------------------|------------------------|
|-------------------------|------------------------|
|---------11-(11)-12------|-(12)s==14---[14]-------|
|-------------------------|------------------------|
|-------------------------|------------------------|
|-------------------------|------------------------|
|
|  E  E E  E   E   E  E E     E  E  E E   E  E E E
|----------2-------3------|---------------7--------|
|-------1------1------1---|-----------8------8-----|
|-----0-----------------0-|---------6----------6-0-|
|-------------------------|------7-----------------|
|--3----------------------|---0--------------------|
|-------------------------|------------------------|
|
|  W                          W
|-------------------------|------------------------|
|-------------------------|------------------------|
|-------------------------|---2--------------------|
|--5----------------------|---2--------------------|
|--3----------------------|---0--------------------|
|-------------------------|------------------------|


  E5
                       ~~~~~~~~
   +Q       E  E  +E   Q.
|-------------14-(14)-15------|
|---------/12-----------------|
|-(14)\-----------------------|
|-----------------------------|
|-----------------------------|
|-----------------------------|
|
|   E   E   E  E   E   E  E E
|-----------------------------|
|--------------7-------8------|
|-----------9------9------9---|
|-------9-------------------9-|
|---7-------------------------|
|-----------------------------|
|
|   W
|-----------------------------|
|-----------------------------|
|-----------------------------|
|---9-------------------------|
|---7-------------------------|
|-----------------------------|


  G5                         C5
 ~~~~~~
   +Q    E  E  +E   E  Q      Q    E  E  +E   Q.
|-(15)-----14-(14)s12-12---|-12------14-(14)-15------|
|--------------------------|------12-----------------|
|--------------------------|-------------------------|
|--------------------------|-------------------------|
|--------------------------|-------------------------|
|--------------------------|-------------------------|
|
|   E  E E  E   E   E  E E    E E  E  E   E   E  E E
|--------------------------|----------2-------3------|
|-----------7-------5------|-------1------1------1---|
|--------7------7------7---|----0------------------0-|
|------5-----------------5-|-------------------------|
|---5----------------------|--3----------------------|
|--------------------------|-------------------------|
|
|   W                         W
|--------------------------|-------------------------|
|--------------------------|-------------------------|
|--------------------------|-------------------------|
|--------------------------|--5----------------------|
|---5----------------------|--3----------------------|
|---3----------------------|-------------------------|


  A5
          ~~~~~~~~~~~~~~~~~~~~~~~~~~~~~~
   +Q     H.
|-(15)s==17----------------------------|
|--------------------------------------|
|--------------------------------------|
|--------------------------------------|
|--------------------------------------|
|--------------------------------------|
|
|   E  E  E  E E     E     E     E
|--------------7-----------------------|
|------------8-------8-----------8-----|
|---------6----------------6-----------|
|------7-------------------------------|
|---0----------------------------------|
|--------------------------------------|
|
|              |-3-| |-3-| |-3-| |-3-|
|   H          S S S S S S S S S S S S
|--------------------------------------|
|--------------------------------------|
|---2----------------------------------|
|---2----------------------------------|
|---0----------0-0-0-0-0-0-0-0-0-0-0-0-|
|--------------------------------------|


                             N.C.
 ~~~~~~
   +W
|-(17)-----------------------------------------------||
|----------------------------------------------------||
|----------------------------------------------------||
|----------------------------------------------------||
|----------------------------------------------------||
|----------------------------------------------------||
|
|   E      E     E     E     E     E     E     E
|----------7-----------------7-----------------------||
|----------------8-----------------8-----------8-----||
|----------------------6-----------------6-----------||
|---7------------------------------------------------||
|----------------------------------------------------||
|----------------------------------------------------||
|
|   |-3--| |-3-| |-3-| |-3-| |-3-| |-3-| |-3-| |-3-|
|   S  S S S S S S S S S S S S S S S S S S S S S S S
|----------------------------------------------------||
|----------------------------------------------------||
|----------------------------x-x-x-x-x-x-x-x-x-x-x-x-||
|----------------------------x-x-x-x-x-x-x-x-x-x-x-x-||
|---0--0-0-0-0-0-0-0-0-0-0-0-x-x-x-x-x-x-x-x-x-x-x-x-||
|----------------------------------------------------||


   Outro
    E5          N.A5 A#B5  E5          N.A5 A#G5
    Gtrs I, II
    S S S S Q   S E. E E   S S S S Q   S E. E E
||-----------------------|-----------------------||
||o----------------------|----------------------o||
||-----------------------|--------------------7--||
||--9-9-9-9-9\--x--------|-9-9-9-9-9\--x------5--||
||o-7-7-7-7-7\--x-7--8-9-|-7-7-7-7-7\--x-7--8---o||
||--------------x-5--6-7-|-------------x-5--6----||


  E5          N.A5 A#B5  E5           N.CA5      A#5   G5
  Gtr IV
  W                      H            E     S  S  E     S  S
|----------------------|-----------------------0-------19--------|
|----------------------|--------------------7/---22b24----22b24==|
|----------------------|-x\--------------------------------------|
|----------------------|-x\-----------x/-------------------------|
|----------------------|-x\-----------x/-------------------------|
|----------------------|-----------------------------------------|
|
| Gtrs I, II
| S S S S Q   S E. E E   S  S S S Q   S  E.       E     E
|----------------------|-----------------------------------------|
|----------------------|-----------------------------------------|
|----------------------|--------------------------------7--------|
|-9-9-9-9-9\--x--------|-9--9-9-9-9\--x-----------------5--------|
|-7-7-7-7-7\--x-7--8-9-|-7--7-7-7-7\--x--7--------8--------------|
|-------------x-5--6-7-|--------------x--5--------6--------------|


  E5                               N.C.  A5 A#B5
                             ~~~~~~~~~~~~
   +S    S  S      +S    S   E.     +Q.        S  S
|-------19--------------19--------------------------|
|-(22)r----22b24==(22)r-----22b24==(22)r------22-20-|
|---------------------------------------------------|
|---------------------------------------------------|
|---------------------------------------------------|
|---------------------------------------------------|
|
|   S    S  S       S    Q           S   E. E  E
|---------------------------------------------------|
|---------------------------------------------------|
|---------------------------------------------------|
|---9----9--9-------9----9\----------x--------------|
|---7----7--7-------7----7\----------x---7--8--9----|
|------------------------------------x---5--6--7----|


  E5                   N.C. A5       A#G5
                   ~~~~~~~~~
   S  S  E         Q    +E      +E   E  E
|----19-----------------------------------|
|-22----20b20.5---------------------------|
|-----------------19---(19)----(19)\---14-|
|-----------------------------------------|
|-----------------------------------------|
|-----------------------------------------|
|
|  S  S  S      S  Q     S  E.       E  E
|-----------------------------------------|
|-----------------------------------------|
|---------------------------------------7-|
|--9--9--9------9--9\----x--------------5-|
|--7--7--7------7--7\----x--7--------8----|
|------------------------x--5--------6----|


  E5                   N.A5       A#5   B5     E5                  N.A5 A#B5
                                                               ~~~
                       |---3----|  |---3---|    |----3----|
   +Q             +Q   E     E  E  E  E    E    E    E    E    H.
|--------------------------------------------|------------------------------|
|--------------------------------------------|------------------------------|
|-(14)b16========(14)-------14-14-14-14---14-|-14---14---14---14------------|
|--------------------------------------------|------------------------------|
|--------------------------------------------|------------------------------|
|--------------------------------------------|------------------------------|
|
|   S      S S S   Q   S E.        E    E       S S    S    S  Q   S E. E E
|--------------------------------------------|------------------------------|
|--------------------------------------------|------------------------------|
|--------------------------------------------|------------------------------|
|---9------9-9-9---9\--x---------------------|--9-9----9----9--9\--x--------|
|---7------7-7-7---7\--x-7---------8----9----|--7-7----7----7--7\--x-7--8-9-|
|----------------------x-5---------6----7----|---------------------x-5--6-7-|


                         H.=H
  N.C.  A5 A#B5N.A5 A#5
                               \2__/
    ~~~~~
   +Q      H.             Q    a   H.        +W           +Q   +H.
|----------------------|-------------------:------------:-------------*|
|----------------------|-------------------:------------:-------------*|
|-(14)r----------------|------(7)--7-------:-(7)--------:-(7)--(7)----*|
|----------------------|-------------------:------------:-------------*|
|----------xs==========|==x\---------------:------------:-------------*|
|----------xs==========|==x\---------------:------------:-------------*|
|
|   S   E. E E S E. Q    +W                  +W           +W
|----------------------|-------------------:------------:-------------*|
|----------------------|-------------------:------------:-------------*|
|----------------------|-------------------:------------:-------------*|
|----------------------|-------------------:------------:-------------*|
|---x---7--8-9-x-7--8--|-(8)---------------:-(8)--------:-(8)---------*|
|---x---5--6-7-x-5--6--|-(6)---------------:-(6)--------:-(6)---------*|



Duration Legend
---------------
W - whole; H - half; Q - quarter; E - 8th; S - 16th; T - 32nd; X - 64th; a - acciaccatura
+ - note tied to previous; . - note dotted; .. - note double dotted
Uncapitalized letters represent notes that are staccato (1/2 duration)
Irregular groupings are notated above the duration line
Duration letters will always appear directly above the note/fret number it represents the
duration for.  Duration letters with no fret number below them represent rests.  Multi-
bar rests are notated in the form Wxn, where n is the number of bars to rest for.  Low
melody durations appear below the staff

Tablature Legend
----------------
 h   - hammer-on
 p   - pull-off
 b   - bend
 pb  - pre-bend
 r   - bend release (if no number after the r, then release immediately)
 /\  - slide into or out of (from/to "nowhere")
 s   - legato slide
 S   - shift slide
 - natural harmonic
[n]  - artificial harmonic
n(n) - tapped harmonic
 ~   - vibrato
 tr  - trill
 T   - tap
 TP  - trem. picking
 PM  - palm muting
\n/  - tremolo bar dip; n = amount to dip
 \n  - tremolo bar down
 n/  - tremolo bar up
/n\  - tremolo bar inverted dip
 =   - hold bend; also acts as connecting device for hammers/pulls
 <> - volume swell (louder/softer)
 x   - on rhythm slash represents muted slash
 o   - on rhythm slash represents single note slash

Misc Legend
-----------
 |  - bar
||  - double bar
||o - repeat start
o|| - repeat end
*|  - double bar (ending)
 :  - bar (freetime)
 $  - Segno
 &  - Coda
Tempo markers -  = BPM(8/16=s8/s16), where s8 = swing 8ths, s16 = swing 16ths

Tap to rate this tab
 
# A B C D E F G H I J K L M N O P Q R S T U V W X Y Z