Song name
# A B C D E F G H I J K L M N O P Q R S T U V W X Y Z

Megadeth - Chutney tab

Help us improve GuitareTab! Take a short survey!
                                Megadeth
                           M.D. 45 The Craving
                                 Chutney

  Palm Mute = *

  Intro Riff:
|---------------------------------|
|---------------------------------|
|---------------------------------|  x7
|--2-2-2-2-2-2-2-22-22------------|
|--2-2-2-2-2-2-2-22-22------------|
|--0-0-0-0-0-0-0-00-00------------|
   * * * * * * * ** **

|---------------------------------|
|---------------------------------|
|---------------------------------|
|--2-2-2-3---4---5----------------|
|--2-2-2-1---2---3----------------|
|--0-0-0---0---0------------------|
   * * *   *   *
    Riff 1:
|--------------------------------------------------------------------|
|--------------------------------------------------------------------|
|--------------------------------------------------------------------|
|--2-2-2-2-2-2-2-22-22-2-2-2-2-2-2-2-22-22-2-2-2-2-2-2-2-22-22-2-2-2-|
|--2-2-2-2-2-2-2-22-22-2-2-2-2-2-2-2-22-22-2-2-2-2-2-2-2-22-22-2-2-2-|
|--0-0-0-0-0-0-0-00-00-0-0-0-0-0-0-0-00-00-0-0-0-0-0-0-0-00-00-0-0-0-|
   * * * * * * * ** ** * * * * * * * ** ** * * * * * * * ** ** * * *
|-------------|
|-------------|
|-------------|  x4
|-3---4---5---|
|-1---2---3---|
|---0---0-----|
    *   *
   Riff 2:
|----------------------------------------------------------------------|
|----------------------------------------------------------------------|
|----------------------------------------------------------------------|
|----------------------------------------------------------------------|
|----9-7---8-6---7-5---5-6---9-7---8-6---7-5---5-6---9-7---8-6---7-5---|
|--0-----8-----7-----6-----0-----8-----7-----6-----0-----8-----7-----6-|

|--------------------------|
|--------------------------|
|--------------------------|
|-------------------3-4-5--|
|-5-6---9-7---8-6---1-2-3--|
|-----0-----8-----7--------|

Surprised that know one has tab this song yet well here it is.
You should be able get it from here it just repeats throughtout the song.
Good song but weird. Peace out
Related for Chutney tab