Guitaretab - guitar tabs
Song name
# A B C D E F G H I J K L M N O P Q R S T U V W X Y Z

Megadeth - Fight Hate tab

Megadeth - Fight Hate

I saw that this song didn t tabbed ..so have to do it. Its Good song but the
best is M-SOLO - I love this part!!!!
Tabbed by : George Bartonek (Jago syn Jungle) From Osvetimany Czech Republic
Im wanna be a rock n roll star...:)
Step 1/2 down all string

  INTRO + CHORUS
e[----------------------------------------------------------------------]
B[----------------------------------------------------------------------]
G[--4-4--2--------------------------------------------------------------]
D[--4-4--2--5-4---------------------------------------------------------]
A[--2-2--0--5-4---------------------------------------------------------]
E[----------3-2---------------------------------------------------------] 
[ Tab from: http://www.guitaretab.com/m/megadeth/68540.html ]
  VERSE                                        End Of Verse
e[-----------------------------------------*-------------------------]
B[-----------------------------------------*-------------------------]
G[-----------------------------------------*-4-4-3-2-----------------]
D[-----5--7-5---7-7---5-7-5-------7/5------*-2-4-3-2--5-7-5-3--------]
A[---7--7-----7----7--------5/7-------5/7--*---2-1-0--5-7-5-3--------]
E[------------------------------7----------*----------3-5-3-1--------] 

Play CHORUS....

..Maybe Solo :)
         Em
e[-----------0------------------------------------------------------------]
B[-------0-3---3-0-------------1---------1--------------------------------]
G[-----1----------2-1--------2---2-----2---2------------------------------]
D[---2---------------2-----3---------3------------------------------------]
A[-2----------------------3---------3-------------------------------------]
E[-0----------------------------------------------------------------------] 

   After M-Solo
e[-----------------------------------------------------------------------]
B[-----------------------------------------------------------------------]
G[---4--4-3-2------------------------------------------------------------]
D[---2--4-3-2---5--7--5-3------------------------------------------------]
A[------2-1-0---5--7--5-3------------------------------------------------]
E[--------------3--5--3-1------------------------------------------------] 
Related for Fight Hate tab