Guitaretab - guitar tabs
Song name
# A B C D E F G H I J K L M N O P Q R S T U V W X Y Z

Megadeth - Train Of Conseguenses tab

                       Train of conseguenses guitar solo - Megadeth

|----------------------12-------|------------------------------------------|
|----15b17~~~~~~~~~~~~~---14^12-|------------------------------14-12-------|
|-------------------------------|14b16--(16)r(14)^12-14~~~~~~~~------14-12-|
|-------------------------------|------------------------------------------|
|-------------------------------|------------------------------------------|
|-------------------------------|------------------------------------------|

|--------------------------|------------------------------------0-0-|
|--------------------------|------------------------------------0-0-|
|--------------------------|----------------------------------------|
|---12^14~~~~~~~~~12\10----|----------------------------------------|
|--------------------------|12^10^12^10-12^13^12^10-----------------|
|--------------------------|------------------------12~~~(12)\------|

|---0---0-0-0---0-0-0---0-0-0---0-0-|0---10-----10-----10-10/12-10----------|
|---5---5-5-3---3-3-5---5-5/8---8-8/|10----10-----10---------------12-11-10-|
|-----------------------------------|---------------------------------------|
|-----------------------------------|---------------------------------------|
|-----------------------------------|---------------------------------------|
|-----------------------------------|---------------------------------------|

|----------------------------------------|
|----------------------------------------|
|---12/\/\/\/\/\(12)\x/12-14-15-16-15-14-|
|----------------------------------------|
|----------------------------------------|
|----------------------------------------|
[ Tab from: http://www.guitaretab.com/m/megadeth/85162.html ]
|-------------------------------------------------------------------|
|-------------------------------------------------------------------|
|-12-14-15-16-15-14-12-----14b16r14^12----14-12~~~~~~~~~~~~12-14b16-|
|-----------------------14-------------14---------------------------|
|-------------------------------------------------------------------|
|-------------------------------------------------------------------|

|---------------------12----------------------12-------------------|
|------12-15-------12----------12-15-------12----------12-15-------|
|--(16)------14b16-------14b16-------14b16-------14b16-------14b16-|
|------------------------------------------------------------------|
|------------------------------------------------------------------|
|------------------------------------------------------------------|

|-------12----------------12-------------15b17~~~~~~~~~~15-14--|
|-12^15----15-12----12^15----15-12----12-----------------------|
|----------------14----------------14--------------------------|
|--------------------------------------------------------------|
|--------------------------------------------------------------|
|--------------------------------------------------------------|

|---15~~~~15~~~~~~(15)\---------|---------14-15--17^15-14--15--17--19^17-15-|
|-------------------------------|------17-----------------------------------|
|-------------------------------|---16--------------------------------------|
|-------------------------14-16-|17-----------------------------------------|
|-------------------------------|-------------------------------------------|
|-------------------------------|-------------------------------------------|

-17--19-20--22-|
---------------|
---------------|
---------------|
---------------|
---------------|
Related for Train Of Conseguenses tab
Advertisement will be closed in 10 seconds