Song name
# A B C D E F G H I J K L M N O P Q R S T U V W X Y Z

Megadeth - Blessed Are The Dead tab

#----------------------------------PLEASE NOTE---------------------------------#
#This file is the author's own work and represents their interpretation of the #
#song. You may only use this file for private study, scholarship, or research. #
#------------------------------------------------------------------------------#

BLESSED ARE THE DEAD
As recorded by Megadeth
(From the 2007 Album UNITED ABOMINATIONS)

Transcribed by Russ Elton (webmaster@abysslord.com), Jordan Baker (Acoustica_)
	

Words and Music by Dave Mustaine
Arranged by Megadeth

Gtr I (E A D G B E) - 'Distortion Guitar'
Gtr II (E A D G B E) - 'Distortion Guitar'
Gtr III (E A D G B E) - 'Lead Guitar'
Gtr IV (E A D G B E) - 'Lead Guitar'

 Intro
  Q=138
       N.C.  E5
 4/4
  Gtrs I, II
  H    E E E E   +W             +W             +H.      Q
|--------------|------------||--------------||-------------|
|--------------|------------||o------------o||-------------|
|--------------|------------||--------------||-------------|
|------------9-|-(9)--------||--(9)---------||-(9)------x--|
|------5p0---7-|-(7)--------||o-(7)--------o||-(7)------x--|
|----------0---|------------||--------------||-------------|


  E5                                           N.C.  E5
   W          +W           +W           +H     E E E E
|-----------|------------|------------|----------------|
|-^5--------|-(5)--------|-(5)--------|-(5)------------|
|-^4--------|-(4)--------|-(4)--------|-(4)------------|
|-^2--------|-(2)--------|-(2)--------|-(2)----------9-|
|-^2--------|-(2)--------|-(2)--------|-(2)----5p0---7-|
|-^0--------|-(0)--------|-(0)--------|-(0)--------0---|


                      N.C.  C5                      N.C.  A5
  +W           +H     E E E E   +W           +H     E E E E
|------------|----------------|------------|----------------|
|------------|----------------|------------|----------------|
|------------|----------------|------------|----------------|
|-(9)--------|-(9)----------5-|-(5)--------|-(5)----------2-|
|-(7)--------|-(7)----5p0---3-|-(3)--------|-(3)----5p0---0-|
|------------|------------0---|------------|------------0---|


                      N.C.  E5                      N.C.  E5
  Gtr II
  +W           +H     E E E E   +W           +H     E E E E
|------------|----------------|------------|----------------|
|------------|----------------|------------|----------------|
|------------|----------------|------------|----------------|
|-(2)--------|-(2)------------|------------|--------------9-|
|-(0)--------|-(0)----5p0---2-|-(2)--------|-(2)----5p0---7-|
|------------|------------0-0-|-(0)--------|-(0)--------0---|
|
| Gtr I
| +W           +H     E E E E   +W           +H     E E E E
|------------|----------------|------------|----------------|
|------------|----------------|------------|----------------|
|------------|----------------|------------|----------------|
|-(2)--------|-(2)------------|------------|--------------9-|
|-(0)--------|-(0)----5p0---2-|-(2)--------|-(2)----5p0---7-|
|------------|------------0-0-|-(0)--------|-(0)--------0---|


               $
                      N.C.  C5                      N.C.  A5
  +W           +W               +W           +H     E E E E
|------------|----------------|------------|----------------|
|------------|----------------|------------|----------------|
|------------|----------------|------------|----------------|
|-(9)--------|-(9)------------|-(9)--------|-(9)----------9-|
|-(7)--------|-(7)------------|-(7)--------|-(7)----5p0---7-|
|------------|----------------|------------|------------0---|
|
| +W           +H     E E E E   +W           +H     E E E E
|------------|----------------|------------|----------------|
|------------|----------------|------------|----------------|
|------------|----------------|------------|----------------|
|-(9)--------|-(9)----------5-|-(5)--------|-(5)----------2-|
|-(7)--------|-(7)----5p0---3-|-(3)--------|-(3)----5p0---0-|
|------------|------------0---|------------|------------0---|


                      N.C.  E5                      N.C.  E5
  +W           +W               +W           +H     E E E E
|------------|----------------|------------|----------------|
|------------|----------------|------------|----------------|
|------------|----------------|------------|----------------|
|-(9)--------|-(9)------------|-(9)--------|-(9)----------9-|
|-(7)--------|-(7)------------|-(7)--------|-(7)----5p0---7-|
|------------|----------------|------------|------------0---|
|
| +W           +H     E E E E   +W           +W
|------------|----------------|------------|----------------|
|------------|----------------|------------|----------------|
|------------|----------------|------------|----------------|
|-(2)--------|-(2)------------|------------|----------------|
|-(0)--------|-(0)----5p0---2-|-(2)--------|-(2)------------|
|------------|------------0-0-|-(0)--------|-(0)------------|


         N.C.  E5         N.C.  E5           N.C.  E5         N.C.  E5
  +W               +H     E E E E   +W                 +H     E E E E
|----------------|----------------|------------------|----------------|
|----------------|----------------|------------------|----------------|
|----------------|----------------|------------------|----------------|
|-(9)------------|-(9)----------9-|-(9)--------------|-(9)----------9-|
|-(7)------------|-(7)----5p0---7-|-(7)--------------|-(7)----5p0---7-|
|----------------|------------0---|------------------|------------0---|
|
|                                        PM|
| +H     E E E E   +W               +Q   E E E E E E   +H     E E E E
|----------------|----------------|------------------|----------------|
|----------------|----------------|------------------|----------------|
|----------------|----------------|------------------|----------------|
|----------------|----------------|------------------|--------------9-|
|-(2)----5p0---2-|-(2)------------|-(2)------5p0---2-|-(2)----5p0---7-|
|-(0)--------0-0-|-(0)------------|-(0)--0-0-----0-0-|-(0)--------0---|


         N.C.  E5         N.C.  E5           N.C.  E5              G5F5F#5
  Gtrs I, II
                                         PM|               PM----|
  +H     E E E E   +H     E E E E   +Q   E E E E E E   +E  E E E E E E E
|----------------|----------------|------------------|-------------------||
|----------------|----------------|------------------|-------------------||
|----------------|----------------|------------------|-------------------||
|-(9)----------9-|-(9)----------9-|-(9)------------9-|-(9)---------------||
|-(7)----5p0---7-|-(7)----5p0---7-|-(7)------5p0---7-|-(7)---------5-3-4-||
|------------0---|------------0---|------0-0-----0---|-----0-0-0-0-3-1-2-||


 Verse
  F#5     E5      F5  F#5    E5G5F5F#5         E5  G5  F5  F#5    N.C.   E5
  Gtr II
      PM|                PM|               PM|                PM|
  +E  E E E E E E E   Q  E E E E E E   +E  E E E E E E E   Q  E E  E E E E
|-------------------|----------------|-------------------|-----------------|
|-------------------|----------------|-------------------|-----------------|
|-------------------|----------------|-------------------|-----------------|
|-------------------|----------------|-------------------|---------------9-|
|-(4)-----2-x-5-x-3-|-4------2-5-3-4-|-(4)-----2-x-5-x-3-|-4------/5p0---7-|
|-(2)-2-2-0-x-3-x-1-|-2--2-2-0-3-1-2-|-(2)-2-2-0-x-3-x-1-|-2--2-2------0---|
|
| Gtr I
|     PM|                PM|               PM|                PM|
| +E  E E E E E E E   Q  E E E E E E   +E  E E E E E E E   Q  E E  E E E E
|-------------------|----------------|-------------------|-----------------|
|-------------------|----------------|-------------------|-----------------|
|-------------------|----------------|-------------------|-----------------|
|-------------------|----------------|-------------------|-----------------|
|-(4)-----2-x-5-x-3-|-4------2-5-3-4-|-(4)-----2-x-5-x-3-|-4------/5p0---2-|
|-(2)-2-2-0-x-3-x-1-|-2--2-2-0-3-1-2-|-(2)-2-2-0-x-3-x-1-|-2--2-2------0-0-|


              N.C.  E5              N.C.  E5
      PM----|               PM----|
  +E  E S S E E E E E   +E  E S S E E E E E
|---------------------|---------------------|
|---------------------|---------------------|
|---------------------|---------------------|
|-(9)---------------9-|-(9)---------------9-|
|-(7)---------5p0---7-|-(7)---------5p0---7-|
|-----0-0-0-0-----0---|-----0-0-0-0-----0---|
|
|     PM----|               PM----|
| +E  E S S E E E E E   +E  E S S E E E E E
|---------------------|---------------------|
|---------------------|---------------------|
|---------------------|---------------------|
|---------------------|---------------------|
|-(2)---------5p0---2-|-(2)---------5p0---2-|
|-(0)-0-0-0-0-----0-0-|-(0)-0-0-0-0-----0-0-|


              N.C.  E5              N.C.
      PM----|               PM----|
  +E  E S S E E E E E   +E  E S S E E E E E
|---------------------|---------------------||
|---------------------|---------------------||
|---------------------|---------------------||
|-(9)---------------9-|-(9)-----------------||
|-(7)---------5p0---7-|-(7)---------5p0-0-3-||
|-----0-0-0-0-----0---|-----0-0-0-0---------||
|
|     PM----|               PM----|
| +E  E S S E E E E E   +E  E S S E E E E E
|---------------------|---------------------||
|---------------------|---------------------||
|---------------------|---------------------||
|---------------------|---------------------||
|-(2)---------5p0---2-|-(2)---------5p0-0-3-||
|-(0)-0-0-0-0-----0-0-|-(0)-0-0-0-0---------||


 Pre-Chorus
  N.C.
  Gtrs I, II
   ~~~~~                         PM--|    ~~~~~                         PM--|
   Q  Q  E E E E   +E  E E E +E  E E E    Q  Q  E E E E   +E  E E E +E  E E E
|----------------|---------------------|----------------|---------------------|
|----------------|---------------------|----------------|---------------------|
|----------------|---------------------|----------------|---------------------|
|----------------|---------------------|----------------|---------------------|
|------------5-3-|-(3)-5-3-2-(2)-------|------------5-3-|-(3)-5-3-2-(2)-------|
|-/5--5--3-5-----|---------------3-0-3-|-/5--5--3-5-----|---------------3-0-3-|


  Gtr II
   ~~~~~                         PM--|    ~~~~~
   Q  Q  E E E E   +E  E E E +E  E E E    Q  Q  E E E E   +E  E E E E E E E
|----------------|---------------------|----------------|-------------------||
|----------------|---------------------|----------------|-------------------||
|----------------|---------------------|----------------|-------------------||
|----------------|---------------------|----------------|-------------------||
|------------8-7-|-(7)-8-7-5-(5)-------|------------8-7-|-(7)-8-7-4---5---6-||
|-/8--8--7-8-----|---------------7-3-7-|-/8--8--7-8-----|-------------------||
|
| Gtr I
|  ~~~~~                         PM--|    ~~~~~
|  Q  Q  E E E E   +E  E E E +E  E E E    Q  Q  E E E E   +E  E E E E E E E
|----------------|---------------------|----------------|-------------------||
|----------------|---------------------|----------------|-------------------||
|----------------|---------------------|----------------|-------------------||
|----------------|---------------------|----------------|-------------------||
|------------5-3-|-(3)-5-3-2-(2)-------|------------5-3-|-(3)-5-3-4---5---6-||
|-/5--5--3-5-----|---------------3-0-3-|-/5--5--3-5-----|-------------------||


 Chorus
  N.C.            E5              N.C.  A5
  Gtrs I, II
    PM----|               PM----|
  E E S S E E E E E   +E  E S S E E E E E
|-------------------|---------------------|
|-------------------|---------------------|
|-------------------|---------------------|
|-------------------|---------------------|
|-7---------5p0---2-|-(2)---------5p0---7-|
|---0-0-0-0-----0-0-|-(0)-0-0-0-0-----0-5-|


                                   To Coda
      BbA5    G5  E5              N.C.
          PM    PM        PM----|
  +E  E E E E E E E   +E  E S S E E E E E
|-------------------|----------------------|
|-------------------|----------------------|
|-------------------|----------------------|
|-------------------|----------------------|
|-(7)-8-7---7-5---2-|-(2)---------5p0---7--|
|-(5)-6-5-0-5-3-0-0-|-(0)-0-0-0-0-----0----|


              N.C.  E5              N.C.  A5
      PM----|               PM----|
  +E  E S S E E E E E   +E  E S S E E E E E
|---------------------|---------------------|
|---------------------|---------------------|
|---------------------|---------------------|
|---------------------|---------------------|
|-(7)---------5p0---2-|-(2)---------5p0---7-|
|-----0-0-0-0-----0-0-|-(0)-0-0-0-0-----0-5-|


                                       D.S. al Coda
      BbA5    G5  E5              N.C.          E5
          PM    PM        PM----|     PM
  +E  E E E E E E E   +E  E S S E E E E E   E E H.
|-------------------|---------------------|------------||
|-------------------|---------------------|------------||
|-------------------|---------------------|------------||
|-------------------|---------------------|-----9------||
|-(7)-8-7---7-5---2-|-(2)---------5p0---7-|-----7------||
|-(5)-6-5-0-5-3-0-0-|-(0)-0-0-0-0-----0---|-0----------||


 2nd Chorus Ending
  &
  N.C.              E5              N.C.  A5
  Gtr III
   W                     W
|---------------------|---------------------|
|---------------------|---------------------|
|---------------------|---------------------|
|---------------------|---------------------|
|---------------------|---------------------|
|---------------------|---------------------|
|
| Gtrs I, II
|     PM----|               PM----|
| +E  E S S E E E E E   +E  E S S E E E E E
|---------------------|---------------------|
|---------------------|---------------------|
|---------------------|---------------------|
|---------------------|---------------------|
|-(7)---------5p0---2-|-(2)---------5p0---7-|
|-----0-0-0-0-----0-0-|-(0)-0-0-0-0-----0-5-|


      BbA5    G5  E5                G5    F5   F#5
                                                ~~~~~~
   W                   H          E  E     +E   E
|-------------------|----------------------------------||
|-------------------|---------------17b19r(17)-17b19===||
|-------------------|----------------------------------||
|-------------------|----------------------------------||
|-------------------|----------------------------------||
|-------------------|----------------------------------||
|
|         PM    PM        PM------|
| +E  E E E E E E E   +E  E S S E E  E      E   E
|-------------------|----------------------------------||
|-------------------|----------------------------------||
|-------------------|----------------------------------||
|-------------------|----------------------------------||
|-(7)-8-7---7-5---2-|-(2)------------5------3---4------||
|-(5)-6-5-0-5-3-0-0-|-(0)-0-0-0-0-0--3------1---2------||


 Guitar Solo (Drover)
                   E5          G5          F5
    ~~~~~
           |--3--|
   +Q      S  S  S  S  S  S  S  S  S  S  S  S  S
|---------14h16p14----14-------14-16----14-16-17-|
|-(17)r------------17----16h17-------17----------|
|------------------------------------------------|
|------------------------------------------------|
|------------------------------------------------|
|------------------------------------------------|
|
|       PM|
|  +E   E  E        E     E     E     E     E
|------------------------------------------------|
|------------------------------------------------|
|------------------------------------------------|
|------------------------------------------------|
|--(4)--------------2-----x-----5-----x-----3----|
|--(2)--2--2--------0-----x-----3-----x-----1----|


  F#5              E5   G5    F5 F#5
                ~~~~~~~~
   Q   +E      +E   +E   +E    Q    a
|-21--(21)b22r(21)-(21)-(21)\---------|
|-----------------------------12s==21-|
|-------------------------------------|
|-------------------------------------|
|-------------------------------------|
|-------------------------------------|
|
|       PM----|
|  Q    E       E    E    E    E E
|-------------------------------------|
|-------------------------------------|
|-------------------------------------|
|-------------------------------------|
|--4-----------------2----5----3-4----|
|--2----2-------2----0----3----1-2----|


                     E5          G5          F5
   S   S  S  S  S  S  S  S  S  S  S  S  S  S  S  S
|-19-----19s17----17s16----16----------------------|
|-----21-------19-------17----17s16-14-16----16s15-|
|-----------------------------------------17-------|
|--------------------------------------------------|
|--------------------------------------------------|
|--------------------------------------------------|
|
|         PM---|
| +E      E     E     E     E     E     E     E
|--------------------------------------------------|
|--------------------------------------------------|
|--------------------------------------------------|
|--------------------------------------------------|
|-(4)-----------------2-----x-----5-----x-----3----|
|-(2)-----2-----2-----0-----x-----3-----x-----1----|


  F#5                     G5    F#5         E5
                                             |3-|
   S  S  S  S  S  S  S  S  S  S  S  S  S  S  S  E
|-------------------------------------------------|
|----15s14----14p12----------------14-------------|
|-16-------16-------14----14-15h16----16-14-16-14-|
|----------------------16-------------------------|
|-------------------------------------------------|
|-------------------------------------------------|
|
|              PM---------------------|
|  Q           E     E     E     E     E     E
|-------------------------------------------------|
|-------------------------------------------------|
|-------------------------------------------------|
|--------------------------------------------9----|
|--4-----------------------5-----4-----------7----|
|--2-----------2-----2-----3-----2-----0----------|


              N.C.        E5                 N.C.  A5
                    \0.5____|
   ~~~
   H.              +E      +E     W
|------------------------------|---------------------|
|------------------------------|---------------------|
|-13--------------(13)----(13)-|---------------------|
|------------------------------|---------------------|
|------------------------------|---------------------|
|------------------------------|---------------------|
|
| +E  E S S E E E   E       E    +E  E S S E E E E E
|------------------------------|---------------------|
|------------------------------|---------------------|
|------------------------------|---------------------|
|-(9)--------------------------|---------------------|
|-(7)---------5p0-----------2--|-(2)---------5p0---7-|
|-----0-0-0-0-------0-------0--|-(0)-0-0-0-0-----0-5-|


      BbA5    G5  E5
   W                   W
|-------------------|---------------||
|-------------------|---------------||
|-------------------|---------------||
|-------------------|---------------||
|-------------------|---------------||
|-------------------|---------------||
|
|         PM    PM
| +E  E E E E E E E   +H.      Q
|-------------------|---------------||
|-------------------|---------------||
|-------------------|---------------||
|-------------------|---------------||
|-(7)-8-7---7-5---2-|-(2)-----------||
|-(5)-6-5-0-5-3-0-0-|-(0)------0----||


 Bridge
  Q=136
  N.C.                                                      C5
  Gtrs I, II
  PM------------------------------------------------------|
                                                            |-3-|
  S S S S S S S S S S S S S S S S   S S S S S S S S S S S S E E E
|---------------------------------|--------------------------------|
|---------------------------------|--------------------------------|
|---------------------------------|--------------------------------|
|---------------------------------|-------------------------5-5-5--|
|---------------------------------|-------------------------3-3-3--|
|-6-5-3-0-5-0-6-5-3-0-5-0-6-5-3-0-|-6-5-3-0-5-0-6-5-3-0-5-0--------|


  N.C.                                                      C5
  Gtr III
  W                                 H               Q       Q
|---------------------------------|---------------------------------||
|---------------------------------|---------------------------------||
|---------------------------------|---------------------------------||
|---------------------------------|---------------------------------||
|---------------------------------|---------------------------------||
|---------------------------------|-------------------------x\------||
|
| Gtrs I, II
| PM------------------------------------------------------|
|                                                           |-3--|
| S S S S S S S S S S S S S S S S   S S S S S S S S S S S S E  E E
|---------------------------------|---------------------------------||
|---------------------------------|---------------------------------||
|---------------------------------|---------------------------------||
|---------------------------------|-------------------------5--5-5--||
|---------------------------------|-------------------------3--3-3--||
|-6-5-3-0-5-0-6-5-3-0-5-0-6-5-3-0-|-6-5-3-0-5-0-6-5-3-0-5-0---------||


 Guitar Solo (Mustaine)
  N.C.                                                      A5Bb5
  S E E     S S E   E   S S S  S S   S  E E     S S E   E S S S  S S
|----------------------------------|---------------------------------|
|----------------------------------|---------------------------------|
|----------------------------------|---------------------------------|
|-7-----------5-----------7----5---|-5------------7---------8----9---|
|---7-7-----7---7---7---7---7----7-|----7-7-----7---7---7-7---7----7-|
|----------------------------------|---------------------------------|
|
|           PM--|     PM|            ~~         PM--------|
| S E S +S  S S S E   S S e    E     E.   S +S  S S S S E S S E.
|----------------------------------|---------------------------------|
|----------------------------------|---------------------------------|
|----------------------------------|---------------------------------|
|----------------------------------|---------------------------------|
|-7h9-7-(7)---------------9---10---|-9----7-(7)-------------7s8------|
|-----------7-7-7-0---0-0----------|------------0-0-0-3-0-0-5s6------|


  N.C.
   H.                     +E    E
|---------------------------------|
|---------------------------------|
|---------------------------------|
|-10---------------------(10)\----|
|--7----------------------(7)\----|
|---------------------------------|
|
|            PM--|   PM|
|  S E S +S  S S S E S S   e    E
|---------------------------------|
|---------------------------------|
|---------------------------------|
|---------------------------------|
|--7h9-7-(7)---------------9---10-|
|------------8-8-8-0-0-0----------|


                                       A5 Bb5
   S  S  S  S  S   S  S  S  S  S  S  S  S  S   S  S
|---------------------------------------------------|
|---------------------------------------------------|
|-14h15p14p12-14p=12----12-15p12----14p12-----15p12-|
|--------------------14----------14-------14--------|
|---------------------------------------------------|
|---------------------------------------------------|
|
|  ~~~             PM---------------|
|  E.       S +S   S  S  S  S  E     S  S  E.
|---------------------------------------------------|
|---------------------------------------------------|
|---------------------------------------------------|
|---------------------------------------------------|
|--9--------7-(7)-----------------------7s=8--------|
|------------------0--0--0--3--0-----0--5s=6--------|


  N.C.
   ~~~~~~~~~~~~~~~~~~~~~~
   Q       Q          Q       Q
|---------------------------------------|
|---------------------------------------|
|-14-----[14]-------[14]-----14pb17\----|
|---------------------------------------|
|---------------------------------------|
|---------------------------------------|
|
|             PM--|      PM|
|  S E S  +S  S S S   E  S S  e       E
|---------------------------------------|
|---------------------------------------|
|---------------------------------------|
|---------------------------------------|
|--7h9-7--(7)-----------------9------10-|
|-------------9-9-9---0--0-0------------|


                                       A5    Bb5
  |-3--|      |--3---|     |--3--|      |---3---|
  S  S S E    S  S   S E   S S   S E    S  S    S  E
|--------------------2-5---------5-8------------8-11-|
|------4-7-------4-----------7------------10---------|
|----5--------5------------8-----------11------------|
|-7--------------------------------------------------|
|----------------------------------------------------|
|----------------------------------------------------|
|
| ~~               PM----------------|
| E.       S +S    S   S S S   E     S  S    E.
|----------------------------------------------------|
|----------------------------------------------------|
|----------------------------------------------------|
|----------------------------------------------------|
|-9--------7-(7)------------------------7s===8-------|
|------------------0---0-0-3---0-----0--5s===6-------|


  N.C.
  Gtr IV
   W
|-------------------------------------------------------------|
|-------------------------------------------------------------|
|-------------------------------------------------------------|
|-------------------------------------------------------------|
|-------------------------------------------------------------|
|-------------------------------------------------------------|
|
| Gtr III
|          ~~~~~~~
|  |---3---|
|  S  S    S  +Q.              T  T  E.      +Q           a
|-------------------------------------------------------------|
|-12--------------------------------14------(14)b15=====(14)r-|
|----13-----------------------12h14-14------(14)b15=====(14)r-|
|---------14-(14)---------------------------------------------|
|-------------------------------------------------------------|
|-------------------------------------------------------------|
|
| Gtrs I, II
|                       PM--|           PM|
|  S    E         S +S  S S S  E        S S   e       E
|-------------------------------------------------------------|
|-------------------------------------------------------------|
|-------------------------------------------------------------|
|-------------------------------------------------------------|
|--7h===9---------7-(7)-----------------------9------10-------|
|-----------------------8-8-8--0--------0-0-------------------|


  Q         Q            Q           E.       S
|------------------------------------------------||
|------------------------------------------------||
|-----------5------------------------5s======14--||
|-----------5------------------------------------||
|------------------------------------------------||
|-----------------------12\----------------------||
|
| S   E  S  E     S  S  +S   S  E    S  S  E
|------------------------------------------------||
|------------------------------------------------||
|------------------------------------------------||
|-x--14-13-13----12-12-(12)----------------------||
|---------------------------14-14---13-13-12-----||
|------------------------------------------------||
|
| ~~           PM----------------------------|
| E.     S +S  S  S  S   S   S  S S  S  S  S  S
|------------------------------------------------||
|------------------------------------------------||
|------------------------------------------------||
|------------------------------------------------||
|-9------7-(7)-----------------------------------||
|--------------0--0--0---6---5--3-0--5--6--5--0--||


 Guitar Solo (Drover)
  N.C.
  Gtr IV
   S   S   S  S   S   S  S  S  S   S  S  S  S  S  S  S
|------------------------------------------------------|
|-17--17----------------18-18--------------17-17-------|
|----(14)----------------------------------------------|
|---------14-14--14--14-------14--14-14-14-------14-14-|
|------------------------------------------------------|
|------------------------------------------------------|
|
| Gtr III
|      ~~~~~~~~~~~~~~
|  S   E.        +Q            H
|------------------------------------------------------|
|------------------------------------------------------|
|------------------------------------------------------|
|------------------------------------------------------|
|------------------------------------------------------|
|-15--12--------(12)----------12\----------------------|
|
| Gtrs I, II
|                     PM---|          PM|
|  S   E      S  +S   S  S  S  E      S  S  e     E
|------------------------------------------------------|
|------------------------------------------------------|
|------------------------------------------------------|
|------------------------------------------------------|
|--7h==9------7--(7)------------------------9----10----|
|---------------------7--7--7--0------0--0-------------|


                                        A5 Bb5
   S   S  S  S  S   S  S  S  S  S  S  S  S  S   S  S
|----------------------------------------------------|
|--------15-15---------------------------------------|
|---------------------------17-17-------16-16--------|
|-14--14-------14--14-14-14-------14-14--------14-14-|
|----------------------------------------------------|
|----------------------------------------------------|
|
|  W
|----------------------------------------------------|
|----------------------------------------------------|
|----------------------------------------------------|
|----------------------------------------------------|
|----------------------------------------------------|
|----------------------------------------------------|
|
|  ~~~              PM---------------|
|  E.        S +S   S  S  S  S  E     S  S  E.
|----------------------------------------------------|
|----------------------------------------------------|
|----------------------------------------------------|
|----------------------------------------------------|
|--9---------7-(7)-----------------------7s=8--------|
|-------------------0--0--0--3--0-----0--5s=6--------|


  N.C.
  Gtr IV
   ~~~~~~~~~~~~~~~~~~~~~~~~~~~
                               |--3--|
   H.                     +E   S  S  S
|--------------------------------------|
|--------------------------------------|
|-17---------------------(17)----------|
|--------------------------------------|
|--------------------------------------|
|-----------------------------14-15-17-|
|
| Gtrs I, II
|            PM--|   PM|
|  S E S +S  S S S E S S   e   E
|--------------------------------------|
|--------------------------------------|
|--------------------------------------|
|--------------------------------------|
|--7h9-7-(7)---------------9--10-------|
|------------8-8-8-0-0-0---------------|


                                                                    A5    Bb5
   |--------6--------|  |---------6---------|  |--------6---------|  |--------6--------|
   S   S  S  S  S    S  S   S    S  S  S    S  S  S    S  S  S    S  S  S     S  S  S  S
|------------------------------------------------------------------------------------------|
|------------------------------------------------------------------------------------------|
|-------------------------------------------------------------------14-------------14-16---|
|----------------------14---------------------14-16---17-14-16---17----17----16-17---------|
|-14--16-17-14-16---17-----17---16-14-16---17----------------------------------------------|
|------------------------------------------------------------------------------------------|
|
|  ~~~                        PM-------------------------------|
|  E.             S    +S     S     S    S     S    E          S     S    E.
|------------------------------------------------------------------------------------------|
|------------------------------------------------------------------------------------------|
|------------------------------------------------------------------------------------------|
|------------------------------------------------------------------------------------------|
|--9--------------7----(7)-------------------------------------------7s===8----------------|
|-----------------------------0-----0----0-----3----0----------0-----5s===6----------------|


  N.C.
   ~~~
   H                S  S  S  S  S  S  S  S
|------------------------------------------|
|------------------------------------------|
|-18---------------18p16----16-18p16-18p16-|
|------------------------18----------------|
|------------------------------------------|
|------------------------------------------|
|
|            PM--|        PM|
|  S E S +S  S S S  E     S  S  e     E
|------------------------------------------|
|------------------------------------------|
|------------------------------------------|
|------------------------------------------|
|--7h9-7-(7)--------------------9----10----|
|------------9-9-9--0-----0--0-------------|


                                   A5 Bb5
                             ~~
   S   S  S  S  S   S  S  S  Q      S  S   S  S
|-----------------------------------------------|
|-----------------------------------------17-19-|
|-----16s14----16-----14s12-14-----16-17--------|
|-18--------16-----16---------------------------|
|-----------------------------------------------|
|-----------------------------------------------|
|
|  ~~~              PM-----------|
|  E.        S +S   S  S  S  S E S  S  E.
|-----------------------------------------------|
|-----------------------------------------------|
|-----------------------------------------------|
|-----------------------------------------------|
|--9---------7-(7)------------------7s=8--------|
|-------------------0--0--0--3-0-0--5s=6--------|


  N.C.
   ~~~~~~~~~~~~~~~~~           ~~~~~~~~~~~~~~~~~~~
               |----3----|                    |---3---|
   Q          +S    S    S  S  S  +Q.        +S    S  S
|-------------------------------------------------------|
|-19b20======(19)rp17------17---------------------12h13-|
|-----------------------17----16-(16)-------(16)\-------|
|-------------------------------------------------------|
|-------------------------------------------------------|
|-------------------------------------------------------|
|
|                     PM------|       PM|
|  S     E S  +S      S     S  S   E  S S e   E
|-------------------------------------------------------|
|-------------------------------------------------------|
|-------------------------------------------------------|
|-------------------------------------------------------|
|--7h====9-7--(7)-------------------------9--10---------|
|---------------------8-----8--8---0--0-0---------------|


   |-------6--------|                                                  |--3---| |3|
   S  S  S  S  S    S  a  S   S  T  T  T  T  T  T  T  T  T  T  T  T  a S  S   S S E
|-10h12h14p12-------------------------------------------------------------------------||
|-------------13p==10-12h13p=12-10----------10-12h13p12p10----------------------------||
|----------------------------------12-11h12----------------13p12p10\-7h9h10p==9p7-----||
|---------------------------------------------------------------------------------9---||
|-------------------------------------------------------------------------------------||
|-------------------------------------------------------------------------------------||
|
|  ~~~                        PM----------------------------------------------------|
|  E.            S       +S   S  S     S     S     S     S     S       S    S   S   S
|-------------------------------------------------------------------------------------||
|-------------------------------------------------------------------------------------||
|-------------------------------------------------------------------------------------||
|-------------------------------------------------------------------------------------||
|--9-------------7-------(7)----------------------------------------------------------||
|-----------------------------0--0-----0-----6-----5-----3-----0-------5----6---5---0-||


 Outro
  E5                          G5
              >
  ~~~~~~~~~~~~~~~
  W          +W                W            W
|----------|----------------|-----------|----------------------|
|----------|----------------|-----------|----------------------|
|-9--------|-(9)------------|-----------|----------------------|
|----------|----------------|-----------|----------------------|
|----------|----------------|-----------|----------------------|
|----------|----------------|-----------|----------------------|
|
|                     |-3-|                          |--3--|
| W          +H.      E E E    W           +H.       E  E  E
|----------|----------------|-----------|----------------------|
|----------|----------------|-----------|----------------------|
|----------|----------------|-----------|----------------------|
|-9--------|-(9)------9-9-9-|-12--------|-(12)------12-12-12---|
|-7--------|-(7)------7-7-7-|-10--------|-(10)------10-10-10---|
|----------|----------------|-----------|----------------------|


                                                  H.=H
  C5                  D5      A5                  B5      E5
  Gtrs I, II
                      |-3-|                       |-3-|
  W          +H.      E E E   W          +H.      E E E   W
|----------|----------------|----------|----------------|------*|
|----------|----------------|----------|----------------|------*|
|----------|----------------|----------|----------------|------*|
|-5--------|-(5)------7-7-7-|-2--------|-(2)------4-4-4-|------*|
|-3--------|-(3)------5-5-5-|-0--------|-(0)------2-2-2-|-2----*|
|----------|----------------|----------|----------------|-0----*|



Duration Legend
---------------
W - whole; H - half; Q - quarter; E - 8th; S - 16th; T - 32nd; X - 64th; a - acciaccatura
+ - note tied to previous; . - note dotted; .. - note double dotted
Uncapitalized letters represent notes that are staccato (1/2 duration)
Irregular groupings are notated above the duration line
Duration letters will always appear directly above the note/fret number it represents the
duration for.  Duration letters with no fret number below them represent rests.  Multi-
bar rests are notated in the form Wxn, where n is the number of bars to rest for.  Low
melody durations appear below the staff

Tablature Legend
----------------
 h   - hammer-on
 p   - pull-off
 b   - bend
 pb  - pre-bend
 r   - bend release (if no number after the r, then release immediately)
 /\  - slide into or out of (from/to "nowhere")
 s   - legato slide
 S   - shift slide
 - natural harmonic
[n]  - artificial harmonic
n(n) - tapped harmonic
 ~   - vibrato
 tr  - trill
 T   - tap
 TP  - trem. picking
 PM  - palm muting
\n/  - tremolo bar dip; n = amount to dip
 \n  - tremolo bar down
 n/  - tremolo bar up
/n\  - tremolo bar inverted dip
 =   - hold bend; also acts as connecting device for hammers/pulls
 <> - volume swell (louder/softer)
 x   - on rhythm slash represents muted slash
 o   - on rhythm slash represents single note slash

Misc Legend
-----------
 |  - bar
||  - double bar
||o - repeat start
o|| - repeat end
*|  - double bar (ending)
 :  - bar (freetime)
 $  - Segno
 &  - Coda
Tempo markers -  = BPM(8/16=s8/s16), where s8 = swing 8ths, s16 = swing 16ths

Tap to rate this tab
# A B C D E F G H I J K L M N O P Q R S T U V W X Y Z