Song name
# A B C D E F G H I J K L M N O P Q R S T U V W X Y Z

Megadeth - Hanger 18 tab

                       _____ _____          ____    _____  _____  ___ ___ 
                /\  /\ |     |    |    /\   |    \  |     /  |  \  |   |
                | \/ | |---- |   ___  /__\  |     \ |----    |     |___|
                |    | _____ |____|  /    \ |     / _____    |     |   |
                \    /            | /     / |___ /           |    _|_ _|_
               ____________________________________________________________     
                                 

                                    HANGER 18               
                                                     by: Adam Porth
intro a
                                 
E|-1-1-1-1-1-1-1-1-1-1-1-1-1-1-1-1--1-1-1-1-1-1-1-1-1-1-1-1-1-1-1-1-|
B|-3-3-3-3-3-3-3-3-3-3-3-3-3-3-3-3--3-3-3-3-3-3-3-3-3-3-3-3-3-3-3-3-|
G|-2-2-2-2-2-2-2-2-2-2-2-2-2-2-2-2--3-3-3-3-3-3-3-3-3-3-3-3-3-3-3-3-|
D|-0-0-0-0-0-0-0-0-0-0-0-0-0-0-0-0--0-0-0-0-0-0-0-0-0-0-0-0-0-0-0-0-|
A|------------------------------------------------------------------|
E|------------------------------------------------------------------|

E|-1-1-1-1-1-1-1-1-1-1-1-1-1-1-1-1--3-3-3-3-3-3-3-3-3-3-3-3-3-3-3-3-|
B|-3-3-3-3-3-3-3-3-3-3-3-3-3-3-3-3--5-5-5-5-5-5-5-5-5-5-5-5-5-5-5-5-|
G|-4-4-4-4-4-4-4-4-4-4-4-4-4-4-4-4--5-5-5-5-5-5-5-5-5-5-5-5-5-5-5-5-|
D|-0-0-0-0-0-0-0-0-0-0-0-0-0-0-0-0--5-5-5-5-5-5-5-5-5-5-5-5-5-5-5-5-|
A|------------------------------------------------------------------|
E|------------------------------------------------------------------|

E|-5-5-5-5-5-5-5-5-5-5-5-5-5-5-5-5--6-6-6-6-6-6-6-6-6-6-6-6-6-6-6-6-|
B|-6-6-6-6-6-6-6-6-6-6-6-6-6-6-6-6--6-6-6-6-6-6-6-6-6-6-6-6-6-6-6-6-|
G|-7-7-7-7-7-7-7-7-7-7-7-7-7-7-7-7--7-7-7-7-7-7-7-7-7-7-7-7-7-7-7-7-|
D|-7-7-7-7-7-7-7-7-7-7-7-7-7-7-7-7--8-8-8-8-8-8-8-8-8-8-8-8-8-8-8-8-|
A|------------------------------------------------------------------|
E|------------------------------------------------------------------|

E|-7-7-7-7-7-7-7-7-7-7-7-7-7-7-7-7--8-8-8-8-8-8-8-8-8-8-8-8-8-8-8-8-|
B|-6-6-6-6-6-6-6-6-6-6-6-6-6-6-6-6--8-8-8-8-8-8-8-8-8-8-8-8-8-8-8-8-|
G|-7-7-7-7-7-7-7-7-7-7-7-7-7-7-7-7--9-9-9-9-9-9-9-9-9-9-9-9-9-9-9-9-|
D|------------------------------------------------------------------|
A|------------------------------------------------------------------|
E|------------------------------------------------------------------|

intro b

E|-----1----5---------------1----6---------------1---7--------------|
B|---3---3----6-----------3---3----6-----------3---3---6------------|
G|-2------------7-------3------------7-------4-----------7----------|
D|----------------0--------------------0-------------------0--------|
A|------------------------------------------------------------------|
E|------------------------------------------------------------------|

E|-----5----8---------------1----5---------------1---6--------------|
B|---3---3----8-----------3---3----6-----------3---3---6------------|
G|-5------------9-------2------------7-------3-----------7----------|
D|----------------0--------------------0-------------------0--------|
A|------------------------------------------------------------------|
E|------------------------------------------------------------------|

                                                            Verse 1
                                                             
E|-----1---7---------------5---8-------5-3----------------|---------|
B|---3---3---6-----------3---3---8---------6-5-3--------3-|-----6~--|
G|-4-----------7------5------------9-------------5-3-2--2-|-----7~--|
D|---------------0----------------------------------------|-0-0-----|
A|--------------------------------------------------------|---------|
E|--------------------------------------------------------|---------|


E|------------------------------------------------------------------|
B|-----3-----6~---------3-----6~---------5------8~--------3-----6~--|
G|-----3-----7~---------4-----7~---------5------9~--------2-----7~--|
D|-0-0---0-0--------0-0---0-0--------0-0---0-0--------0-0---0-0-----|
A|------------------------------------------------------------------|
E|------------------------------------------------------------------|

E|------------------------------------------------------------------|
B|-----3-----6~---------3-----6~---------5------8~--------3-----6~--|
G|-----3-----7~---------4-----7~---------5------9~--------2-----7~--|
D|-0-0---0-0--------0-0---0-0--------0-0---0-0--------0-0---0-0-----|
A|------------------------------------------------------------------|
E|------------------------------------------------------------------|

E|------------------------------------------------------------------|
B|-----3-----6~---------3-----6~---------5------8~--------3-----6~--|
G|-----3-----7~---------4-----7~---------5------9~--------2-----7~--|
D|-0-0---0-0--------0-0---0-0--------0-0---0-0--------0-0---0-0-----|
A|------------------------------------------------------------------|
E|------------------------------------------------------------------|

E|------------------------------------------------------------------|
B|-----3-----6~---------3-----6~---------5------8~--------3-----6~--|
G|-----3-----7~---------4-----7~---------5------9~--------2-----7~--|
D|-0-0---0-0--------0-0---0-0--------0-0---0-0--------0-0---0-0-----|
A|------------------------------------------------------------------|
E|------------------------------------------------------------------|

E|------------------------------------------------------------------|
B|-----3-----6~---------3-----6~---------5------8~------------------|
G|-----3-----7~---------4-----7~---------5------9~------7/2-----7/3-|  
D|-0-0---0-0--------0-0---0-0--------0-0---0-0------0-0-----0-0-----|
A|------------------------------------------------------------------|
E|------------------------------------------------------------------|

E|---------------------|
B|---------------------|
G|-----7/4------7-5-5--|
D|-0-0------0-0--------|
A|---------------------|
E|---------------------|

Solo(Friedman)

E|------------------------------------17-20-17h20p17--17------------|
B|--------------------------------------------------20---20-18-20---|
G|-19b21-19b21-21b22----17-19---17-19----------------------------19-|
D|--------------------19------19------------------------------------|
A|------------------------------------------------------------------|
E|------------------------------------------------------------------|

E|-------------------------------------------------|
B|-------------------------------------------------|
G|------7-------7-----7----------7-------7-----7---|
D|------7-------7-----7----------8-------8-----8---|
A|-5-5--5--5-5--5--5--5-----5-5--5--5-5--5--5--5---|
E|-------------------------------------------------|

E|-------------------------------------------------|
B|-------------------------------------------------|
G|------7-------7-----7----------5-------5-----5---|
D|------7-------7-----7----------5-------5-----5---|
A|-5-5--5--5-5--5--5--5-----3-3--3--3-3--3--3--3---|
E|-------------------------------------------------|

E|-17p13---------13-17p13-17p13-17-13--13-18p13---------13-17-13-|
B|-----15p13-13-15-------------------15-------15p13-13-15--------|
G|---------14-------------------------------------14-------------|
D|---------------------------------------------------------------|
A|---------------------------------------------------------------|
E|---------------------------------------------------------------|

E|-16p13-16p13---17p16p13-17p16p13h16-16b17-21b23-22b23-22b23b24-|
B|-----------15--------------------------------------------------|
G|---------------------------------------------------------------|
D|---------------------------------------------------------------|
A|---------------------------------------------------------------|
E|---------------------------------------------------------------|

E|-------------------------------------------------|
B|-------------------------------------------------|
G|------7-------7-----7----------7-------7-----7---|
D|------7-------7-----7----------8-------8-----8---|
A|-5-5--5--5-5--5--5--5-----5-5--5--5-5--5--5--5---|
E|-------------------------------------------------|

E|------------------------------------------------------------|
B|------------------------------------------------------------|
G|------7-------7-----7---14p12p10-9-12p10-9--10p9------------|
D|------7-------7-----7---------------------10----12-10h12----|
A|-5-5--5--5-5--5--5--5---------------------------------------|
E|------------------------------------------------------------|

Solo(Friedman)

E|------------------------------------------------------------|
B|-------------17-17-18--18p17--19b20--18-15h18p15------------|
G|-17b19--17b19---------------19------------------17b19-------|
D|------------------------------------------------------------|
A|------------------------------------------------------------|
E|------------------------------------------------------------|

E|-----------------------------------------------------|
B|-----------------------------------------------------|
G|-----------------------------------------------------|
D|-------4----------------5-------4--------------------|
A|---------------------------------------------3-2-----|
E|-0-1-2---2--2-5-2-0-2-3---0-1-2---2--2-5-2--2---5-2--|

E|-----------------------------------------------------|
B|-----------------------------------------------------|
G|-----------------------------------------------------|
D|--------4----------------5-------4-------------------|
A|----------------------------------------3-2----------|
E|--0-1-2---2--2-5-2-0-2-3---0-1-2---2--2----5-2---5-2-|


E|--------------------------------------------------------|
B|--------------------------------------------------------|
G|--------------------------------------------------------|
D|--------------------------------------------------------|
A|----------------4/5-4/5-4/5-----------------4/5-4/5-4/5-|
E|3-2-0-2-3-5-3-2-2/3-2/3-2/3-3-2-0-2-3-5-3-2-2/3-2/3-2/3-|

E|--------------------------------------------------------|
B|--------------------------------------------------------|
G|--------------------------------------------------------|
D|--------------------------------------------------------|
A|----------------4/5-4/5-4/5-----------------4/5-4/5-4/5-|
E|3-2-0-2-3-5-3-2-2/3-2/3-2/3-3-2-0-2-3-5-3-2-2/3-2/3-2/3-|



          Lyrics

welcome to our fortress tall
take some time to show you around
impossible to break these walls
for you see the steel is much to strong
computer banks to rule the world
instruments to sight the stars 

possibly Ive seen to much 
hanger 18 I know to much 

foreign life forms inventory 
suspended state of cryogenics
selective amnesias the story
believed foretold but who'd suspect
the military intelligence 
two words combined that cant make sense

Possibly Ive seen to much
hanger 18 I know to much 
Tap to rate this tab
# A B C D E F G H I J K L M N O P Q R S T U V W X Y Z