Song name
# A B C D E F G H I J K L M N O P Q R S T U V W X Y Z

Megafaun - The Longest Day tab

The tab for the intro is the banjo part, but on the guitar.  There's
another guitar part that joins it later on.... I'll figure it out eventually

Capo on the 5th fret

Intro:

G                    C/G
Em      C/G          G

        G                C/G                Em          C/G         G   Em          C/G         G  
  4     1   2  3  4      1   2  3  4        1 2 3  4    1 2 3 4     1   1 2 3  4    1 2 3 4     1 
e------------------------------------------|---------------------------|------------------------|
B------------------------------------------|---------------------------|------------------------|
G----0--2h4-0-----0h2h4--4/5-4--2--0-0-----|----------0-0--------0-----|----------0-0--------0--|X2
D-0h2----------0--------------------4------|2------0h2--------0h2------|2------0h2--------0h2---|
A------------------------------------------|--2-3----------------------|--2-3-------------------|
E------------------------------------------|--------------3-3----------|--------------3-3-------|

Em  C/G      G           D
1 2 3  4     1 2 3 4     1
--------------------------|
--------------------------|
----------0--0--------0---|   X1
2------0h2---------0h2----|
--2-3---------------------|
---------------3-3--------|


Chords:


D
right away
C/G
waiting for a sign
D                      C/G   
wanting you to take my hand

D
breathless in the morn
      Em             C/G
you'd gone to better lands
       Am         C/G 
i just sat there, silent,
       D           G
as the longest day began

[Intro]

gone a day
it feels like many years
there below the wet tree ground

sun gave to moon, said
"sleep now restless one,
cause i ain't never seen a night
that didn't have a dawn"

[Intro]

spring brought rain
summer brought the fall
fox said goodbye to their homes

almost been a year
my love for you has grown
and this weatherd photograph
is all i have to show

[Intro]
Tap to rate this tab
# A B C D E F G H I J K L M N O P Q R S T U V W X Y Z