Song name
# A B C D E F G H I J K L M N O P Q R S T U V W X Y Z

Megaherz - Gott Sein tab

Megaherz - Gott Sein
Submitted By: Nate Dunne
EMail: natedunne4@icqmail.com


Tuning
D#
A#
F#
C#
G#
C#

 
 
 

Intro
D#------------
A#------------
F#-7-----7--6-
C#----8-------
G#-5-----5--4-
C#----8-------

Guitar part
D#-------------------------
A#-------------------------
F#-------------------------
C#-3-0-5-0-3-0-5--0-0--0-0-
G#-3-0-5-0-3-0-5--0-0--0-0-
C#-3-0-5-0-3-0-5--0-0--0-0-
pm  _   _   _    _________


 (0:25)
D#-----
A#-----
F#-----
C#-4-4-
G#-4-4-
C#-4-4-

D#--------------------
A#--------------------
F#--------------------
C#-3-0-5-0-3-0-5--3-5-
G#-3-0-5-0-3-0-5--3-5-
C#-3-0-5-0-3-0-5--3-5-
pm  _   _   _

0:57
D#----------
A#----------
F#-7---7-6--
C#-7-8-7-6--
G#-5-8-5-4--
C#---8------

Sing Hallelua!
D#-10--8---------
A#-10--8--8--11--
F#--------7--10--
C#--------------
G#--------------
C#--------------
Tap to rate this tab
# A B C D E F G H I J K L M N O P Q R S T U V W X Y Z