Song name
# A B C D E F G H I J K L M N O P Q R S T U V W X Y Z

Megaherz - Schlag Zuruck tab

Megaherz - Schlag Züruck
Submitted By: Nate Dunne
EMail: natedunne@icqmail.com


Tuning:
|-D#-|
|-A#-|
|-F#-|
|-C#-|
|-G#-|
|-C#-|

 

 
 
 

(0:13) Chorus
(1:23) Verse
(1:35) Chorus
(2:45) Verse
(2:57) Chorus
(3:20) Interlude
(3:32) Chorus

Chorus
D#-------------------------------------------|
A#-------------------------------------------|
F#-------------------------------------------|
C#-4----7--10---4----7--10-------------------|
G#-2----5--8----2----5--8----0-2-4-2-0-2-4-2-|
C#-------------------------------------------|

D#-------------------------------------------|
A#-------------------------------------------|
F#-------------------------------------------|
C#-4----7--10----------------------4----7--10--|
G#-2----5--8----0-2-4-2-0-2-4-2--2----5--8---|
C#-------------------------------------------|

Verse
D#----------------------------------------------------------|
A#---------------------------------------7/slide up the neck-|
F#-5-6-7---5-6-7--5-6-7--5-6-7---5-6-7----------------------|
C#----------------------------------------------------------|
G#----------------------------------------------------------|
C#----------------------------------------------------------| x2

Interlude
D#-----------------------|
A#-----------------------|
F#-----------------------|
C#-----------------------|
G#-5-6-4-----------------|
C#-------0-0-0-0-0-0-0-0-| x8
Tap to rate this tab
# A B C D E F G H I J K L M N O P Q R S T U V W X Y Z