Song name
# A B C D E F G H I J K L M N O P Q R S T U V W X Y Z

Megaherz - Direkt Ins Blut tab

Artist: Megaherz
Tuning: Drop C


Intro clean:

d|----------------------|
a|----------------------|
F|----------------------|
C|----------------------|
G|----------------------|
C|-1/3-33-4-3-33-33/1/3-|



Riff 1:

d|----------------------|
a|----------------------|
F|----------------------|
C|-1/3-33-4-3-33-33/1/3-|
G|-1/3-33-4-3-33-33/1/3-|
C|-1/3-33-4-3-33-33/1/3-|
PM     ..        ..

Verse clean:

d|---------------------------------------------------------------|
a|---------------------------------------------------------------|
F|---------------------------------------------------------------|
C|---------------------------------------------------------------|
G|---------------------------------------------------------------|
C|-3-33-3-3-3-333-4-44-4-4-4-444-1-11-1-1-1-111-3-33-3-3-3-3333--|


Chorus:

Guitar 1:

d|---------------------------------------------------------------|
a|---------------------------------------------------------------|
F|---------------------------------------------------------------|
C|-3-33-3-3-3-333-4-44-4-4-4-444-1-11-1-1-1-111-3-33-3-3-3-3333--|
G|-3-33-3-3-3-333-4-44-4-4-4-444-1-11-1-1-1-111-3-33-3-3-3-3333--|
C|-3-33-3-3-3-333-4-44-4-4-4-444-1-11-1-1-1-111-3-33-3-3-3-3333--|
PM   ..       ...   ..       ...   ..       ...   ..       ....
Guitar 2:

d|---------------------------------------------------------------|
a|-6-6-6-6-6-6-66-7-7-7-7-7-7-77-4-4-4-4-4-4-47-6-6-6-6-6-6-6-6--|
F|---------------------------------------------------------------|
C|---------------------------------------------------------------|
G|---------------------------------------------------------------|
C|---------------------------------------------------------------|


Riff 2:

d|-----------------|
a|-----------------|
F|-----------------|
C|-33-1-3-33-3-3-1-|
G|-33-1-3-33-3-3-1-|
C|-33-1-3-33-3-3-1-|
PM .. . . .. . . .


Play:

Intro:           4x
Riff 1:          8x
Verse:           1x
Chorus:          2x
Riff 2:          4x
Verse:           1x               
Chorus:          4x
Bridge(no Guit.)
Chorus:          4x
Riff 2:          4x


Comments at deathunlimitedaustria@hotmail.com
Tap to rate this tab
# A B C D E F G H I J K L M N O P Q R S T U V W X Y Z