Song name
# A B C D E F G H I J K L M N O P Q R S T U V W X Y Z

Megaman X - Intro Stage tab

Here is the tab for the Introductory Highway Stage of Megaman X.
Sorry it's so long! Try to bear with me. Once you start getting the basic tune it should 
easy to figure out what comes next, and then it just comes to you.

Intro Chords are played once, and are absent throughout the rest of the song.

E ----------------------------------------------------3-|
B ---------------------4-------------4-------------4----|
G ------------------------3h4h5---------3h4h5---5-------|
D ---12--12----10---------------------------------------|
A ---12--12----10---------------------------------------|
E ---10--10-----8---------------------------------------|

E -------------------4---3------------------------------|
B ---6---4---3---------------6---4--3--4----------3---4-|
G --------------3---------------------------5-----------|
D ------------------------------------------------------|
A ------------------------------------------------------|
E ------------------------------------------------------|

E ------------------------------------------------------|
B --6----3---4---3--------------------------------------|
G -------------------3----------------------------------|
D -----------------------5------------------------------|
A ------------------------------------------------------|
E ------------------------------------------------------|

You sort of repeat this part, but with a different ending to it:

E ----------------------------------------3-------------|
B ---------4-------------4-------------4------6---4---3-|
G ------------3h4h5---------3h4h5---5-------------------|
D ------------------------------------------------------|
A ------------------------------------------------------|
E ------------------------------------------------------|
                      V-- Right here is where the change occurs.
E ----------4---3-------8---6---4------------------------|
B ------------------6--------------6------3---4---6----3-|
G ---3---------------------------------------------------|
D -------------------------------------------------------|
A -------------------------------------------------------|
E -------------------------------------------------------|
                                  V-- Do this quickly!
E --------------------------8-----11p10-----------------|
B --4---6-/-8~~~~~--6---9--------------h11p8------------|
G ----------------------------------------------7-------|
D ------------------------------------------------------|
A ------------------------------------------------------|
E ------------------------------------------------------|

E ------------------------------------------------------|
B ------------------------------------------------------|
G --7h8p7-------------7--8---10p8p7---------------------|
D ---------10----10-------------------------------------|
A ------------------------------------------------------|
E ------------------------------------------------------|

E ---4--3------------------------------------------------|
B ---------6---4--3--4--------3---4---6---3---4--3-------|
G -----------------------5--------------------------3----|
D -----------------------------------------------------5-|
A -------------------------------------------------------|
E -------------------------------------------------------|

This is where the song starts changing, but it brings back the basic notes you've 
played. This is the last new part and then it repeats itself throughout the song.

E ---------------------3--------------------------------|
B ------3--4-------3-------6--4--3----------------------|
G --5---------5---------------------3-------------------|
D ------------------------------------------------------|
A ------------------------------------------------------|
E ------------------------------------------------------|


E ---4---3-------8---6---4------------------------------|
B -----------6--------------6------3---4---6----3-------|
G ------------------------------------------------------|
D ------------------------------------------------------|
A ------------------------------------------------------|
E ------------------------------------------------------|

E --------------------------8-----11p10-----------------|
B --4---6-/-8~~~~~--6---9--------------h11p8------------|
G ----------------------------------------------7-------|
D ------------------------------------------------------|
A ------------------------------------------------------|
E ------------------------------------------------------|

E ------------------------------------------------------|
B ------------------------------------------------------|
G --7h8p7-------------7--8---10p8p7---------------------|
D ---------10----10-------------------------------------|
A ------------------------------------------------------|
E ------------------------------------------------------|

E ---4--3------------------------------------------------|
B ---------6---4--3--4--------3---4---6---3---4--3-------|
G -----------------------5--------------------------3----|
D -----------------------------------------------------5-|
A -------------------------------------------------------|
E -------------------------------------------------------|

E ---------------------3--------------------------------|
B ------3--4-------3-------6--4--3----------------------|
G --5---------5---------------------3-------------------|
D ------------------------------------------------------|
A ------------------------------------------------------|
E ------------------------------------------------------|

E ---4--3------------------------------------------------|
B ---------6---4--3--4--------3---4---6---3---4--3-------|
G -----------------------5--------------------------3----|
D -----------------------------------------------------5-|
A -------------------------------------------------------|
E -------------------------------------------------------|

And then it loops to the beginning, except without the Intro power chords being played.

That's it!

My favorite part is the part the part where you play the eleventh fret on the sixth 
and pull it off into a really cool sound. Me like.

If you don't know how the song sounds..

Play the game for SNES. They also are coming out with a Megaman X Collection for 
and Playstation 2. ^_^

Hope you enjoyed my tab and can play it good.
Tap to rate this tab
# A B C D E F G H I J K L M N O P Q R S T U V W X Y Z