Song name
# A B C D E F G H I J K L M N O P Q R S T U V W X Y Z

Meghan And Lucas - Player 2 chords

Highlighted       Show chord diagrams
-------------------------------------------------------------------------------
                             PLAYER 2- Meghan and Lucas
-------------------------------------------------------------------------------
Tabbed by: Evin
E-mail: ecling929@hotmail.com

Tuning: Standard

CHORDS:
e|------------------------X--------------------------------------------------|
B|------------------------7--------------------------------------------------|
G|-----------------5------7-------9------------------------------------------|
D|---------5-------5------7-------9------------------------------------------|
A|---------5-------3------0-------7------------------------------------------|
E|---------3--------------X--------------------------------------------------|
                  G              C           D            Em

Verse 1:
G
They say it's just another day
G
I guess they don't feel this way
C
Heart shaped dreams are coming true
D
Except mine but I'll make it through

G
Back home lying in my bed
G
Ice cream knows me like a friend
C
Long notes and chocolates on the floor
D                                                    C
Thanks Mom but I can't take no more
                     D
I can't take no more

Chorus:
C              G
I know I'll find you
D                         Em
Another year is another chance to fall
C        G        D                  Em
in love with you my Player 2
                       C G D Em
I'm not giving up

C                 G               D
I've got you on my mind
                                           G
Where ever you are this time

Verse:
G
Maybe you're just around the bend
G
Anxious like back when I was 10
C
It's just another night at home
D                                        C
Lonely but I'm not so alone
                       D
I'm not so alone

Chorus:

C              G
I know I'll find you
D                         Em
Another year is another chance to fall
C        G        D                  Em
in love with you my Player 2
                        C G D Em
I'm not giving up

C                 G               D
I've got you on my mind
                                           
Where ever you are this time

Instrumental
C G D Em x4

Chorus:

I know I'll find you

Another year is another chance to fall

in love with you my Player 2
                        C G D Em
I'm not giving up

C                 G               D
I've got you on my mind
                                           
Where ever you are this time
 
C G D Em x3
C                 G               D
I've got you on my mind
                                           G
Where ever you are this time
Tap to rate this tab
 
# A B C D E F G H I J K L M N O P Q R S T U V W X Y Z