Song name
# A B C D E F G H I J K L M N O P Q R S T U V W X Y Z

Meiko - Hawaii tab

Artist: Meiko
Album: Meiko
Year: 2007
Title: Hawaii

   Bm              F#m              Am              Em
|-------------------------------------------------------------------|
|----3--3--3--3--3-------------------1--1--1--1--1------------------|
|-----4--4--4--4-----2--2--2--2--2----2--2--2--2------0--0--0--0--0-|
|---------------------4--4--4--4-----------------------2--2--2--2---|
|--2--------------------------------0-------------------------------|
|------------------2--------------------------------0---------------|

It's the guitar part, but personaly i prefer play the song this way :

|--------------------------------------------------------------------|
|---------3----------------2----------------1----------------0-------|
|---4-------4---4----2-------2---2----2-------2---0----0-------0---0-|
|-----4-------4--------4-------4--------2-------2--------2-------2---|
|-2-----2---------------------------0-----0--------------------------|
|------------------2-----2---------------------------0-----0---------|



     Bm	        F#m     Am  Em
	I wanna go to hawaii

     Bm		    F#m        Am   Em
	build my castle out of sand

     Bm		    F#m     Am Em
	and i won't need anybody

	Bm         F#m     Am    Em
	telling me  that i can't

            Bm	      F#m	   Am  Em
	and you can't say that you see me

	   Bm		  F#m    Am  Em
	if you don't know  who i am

	Bm	  F#m	       Am   Em
	you can't see that you need me
        
      	    Bm		     F#m     Am   Em
	and neither one of us can be found

	   Bm		    F#m	    Am   Em
	if neither one of us can be found


     Bm         F#m	    Am  Em
	i wanna soak up the water

     Bm		      F#m	Am    Em 
	i dream about you every night

     Bm		  F#m		  Am  Em
	and in my mind will be an order

	Bm	     F#m	  Am      Em	
	take it away  in just one flight


	    Bm	      F#	   Am  Em
	and you can't say that you see me

	   Bm		  F#m	 Am   Em
	if you don't know  who i am

	Bm	  F#m	       Am   Em
	you can't see that you need me

	    Bm		     F#m     Am   Em
	and neither one of us can be found

	   Bm		    F#m     Am   Em 
	if neither one of us can be found

	   Bm		    F#m	    Am   Em
	if neither one of us can be found



For any comments or suggestions mail to rems_braz@hotmail.fr
Tap to rate this tab
# A B C D E F G H I J K L M N O P Q R S T U V W X Y Z