Song name
# A B C D E F G H I J K L M N O P Q R S T U V W X Y Z

Meiko - The Saddest Song In The World tab

I LOVE MEIKO! I just thought I'd tab this from one of her radio performances. 
She's awesome! Hope you find this helpful :)

(1)
e|--------------------------------------------------------------------------|
B|---------3------3----------3-----------------3-------------------0------0-|
G|------0-------0---------0-------0---------0-------0-----------0-------0---|
D|---4--------4--------4--------4--------4--------4---0------0--------0-----|
A|5-----------------0-----------------2-------------------------------------|
E|--------------------------------------------------------3-----------------|

*play this throughout the song until the bridge*

I wake up and you're gone
The tv still on
And I sit and I watch
Another rerun
She is left all alone
Her lover's out to sea
And I can't help but feel
That she is just like me

And I gave all I could but it wasn't good enough
And you said that you would be here before I woke up
Now you're gone

I don't know why
Myy heart still beats
And I can't feel
Anything

'Cause I gave all I could but it wasn't good enough
And you said that you would be here before I woke up
Now you're gone
Away
Now you're gone
Away

-bridge-

Why don't you take me with you,  --->   Come and take me with you
e|-------------------|          e|------------------------------------------|
B|----------0------0-|          B|-----------0------0-----------------------|
G|-------0-------0---|          G|--------0-------0-------------------------|
D|----0--------0-----|          D|-----0--------0---------------------------|
A|-------------------|          A|------------------------------------------|
E|-3-----------------|          E|-0----------------------------------------|


Come and take me with you,    --->      Come and take me with you
e|-------------------|          e|------------------------------------------|
B|----------0------0-|          B|-----------0------0-----------------------|
G|-------0-------0---|          G|--------0-------0-------------------------|
D|----0--------0-----|          D|-----0--------0---------------------------|
A|-------------------|          A|------------------------------------------|
E|-3-----------------|          E|-0----------------------------------------|

(2)
e|--------------------------------------------------------------------------|
B|---------3------3----------3-----------------3-------------------1------0-|
G|------0-------0---------0-------0---------0-------0-1---------0-------0---|
D|---4--------4--------4--------4--------4--------4--- ------0--------0-----|
A|5-----------------0-----------------2-------------------------------------|
E|--------------------------------------------------------------------------|

e|--------------------------------------------------------------------------|
B|---------3------3----------3-----------------3-------------------0------0-|
G|------0-------0---------0-------0---------0-------0-----------0-------0---|
D|---4--------4--------4--------4--------4--------4---0------0--------0-----|
A|5-----------------0-----------------2-------------------------------------|
E|--------------------------------------------------------3-----------------|

*----now keep playing the (1) rhythm the rest of the way----*

'Cause I gave all I could but it wasn't good enough
And you said that you would be here before I woke up
Now you're gone

oh ooh oh (5x) [stop playing after 3x mark]
Tap to rate this tab
 
# A B C D E F G H I J K L M N O P Q R S T U V W X Y Z