Song name
# A B C D E F G H I J K L M N O P Q R S T U V W X Y Z

Meja - Intimacy tab

Meja - Intamacy
(Swedish singer)


Intro Solo

E|--------------------------------------------------------|
B|4h5-4-0-0---0-2-----------------------------------------|
G|----------1---------------------------------------------|
D|--------------------------------------------------------|
A|--------------------------------------------------------|
E|--------------------------------------------------------|





Song solo

E|--------------------------------------------------------|
B|--0-0---0-2-4-2-----------------------------------------|
G|1-----1-------------------------------------------------|
D|--------------------------------------------------------|
A|--------------------------------------------------------|
E|--------------------------------------------------------|

What are you trying to say to me

E|--------------------------------------------------------|
B|--0-0---0-2-4-2-----------------------------------------|
G|1-----1-------------------------------------------------|
D|--------------------------------------------------------|
A|--------------------------------------------------------|
E|--------------------------------------------------------|

What are you trying to say...
Tap to rate this tab
# A B C D E F G H I J K L M N O P Q R S T U V W X Y Z