Song name
# A B C D E F G H I J K L M N O P Q R S T U V W X Y Z

Mekaal Hasan Band - Jhok Rajhan tab

Help us improve GuitareTab! Take a short survey!
----------------------------------------------------------------------------
		        Jhok rajhan - Mekaal hasan band
----------------------------------------------------------------------------Tabbed by: 
khan
Email: rocking_lead_guitar@hotmail.com

Tuning: Standard (EADGBe)

well hey guys wats up ..okay i tabbed this song because its really nice even the video 
it is amazing anyways this is tab amazingly accurate cuz its not that hard to play and i 
recorded my tab on the original song there is hardly any difference so here is the tab:

Intro and Verse:

e|-------------------------------------------------------------------------|
B|-------------------------------------------------------------------------|
G|---4---4---4---4---4---4---4---4-----------------------------------------|
D|--4-4---4---4---4---4---4---4---4----------------------------------------|
A|-2----2---2---2---2---2---2---2------------------------------------------|
E|-------------------------------------------------------------------------|

okay repeat this 8 times then the tapping comes in but the intro riff is
played in the background through out the song.......

e|-t12p0-t4p0-t12p0-t6p0--t12p0-t4p0-t12p0-t9p0----------------------------|
B|-------------------------------------------------------------------------|
G|-------------------------------------------------------------------------|
D|-------------------------------------------------------------------------|
A|-------------------------------------------------------------------------|
E|-------------------------------------------------------------------------|

Repeat this tapping X2 then the chorus comes:

Chorus:

e|----------0--------------------------------------------------------------|
B|-3--2-----1--------------------------------------------------------------|
G|-2--2--4--0--------------------------------------------------------------|
D|-0--2--4--2--------------------------------------------------------------|
A|-0--0--2--3--------------------------------------------------------------|
E|-0--0-----0--------------------------------------------------------------|

Let the last chord ring in the chord progression and repeat it X2 in chorus

Now the solo which mekaal hasan plays harmonizing with the flute:
                v ^ V ^    v ^ V ^    V ^ V ^
e|-------------------------------------------------------------------------|
B|8-10-8-5-8s5--1212121215-1212121217-121212121512-10-12-15---8-10-8-5-10s5|
G|-------------------------------------------------------------------------|
D|-------------------------------------------------------------------------|
A|-------------------------------------------------------------------------|
E|-------------------------------------------------------------------------|

e|-------------------------------------------------------------------------|
B|-17h19p17p15h17p15p12h14p12p10h12p10p8h10p8p6h8p6p4h6p4p2h4p2h4p2s7s5s4--|
G|-------------------------------------------------------------------------|
D|-------------------------------------------------------------------------|
A|-------------------------------------------------------------------------|
E|-------------------------------------------------------------------------|

e|-----------------------------12-14s17-15h17p15p12h14p12p10h12p10p8h10p8--|
B|8-10-8-5-8--8-10-8-5-8--12-14--------------------------------------------|
G|-------------------------------------------------------------------------|
D|-------------------------------------------------------------------------|
A|-------------------------------------------------------------------------|
E|-------------------------------------------------------------------------|

Continued.....

e|p6h8p6p4h6p4p2h4p2h4p2s7s5s4------------------------------12-14s17-------|
B|-----------------------------8-10-8-5-8--8-10-8-5-8--12-14---------------|
G|-------------------------------------------------------------------------|
D|-------------------------------------------------------------------------|
A|-------------------------------------------------------------------------|
E|-------------------------------------------------------------------------|

e|15h17p15p12h14p12p10h12p10p8h10p8p6h8p6p4h6p4p2h4p2h4p2p0----------------|
B|-------------------------------------------------------------------------|
G|-------------------------------------------------------------------------|
D|-------------------------------------------------------------------------|
A|-------------------------------------------------------------------------|
E|-------------------------------------------------------------------------|

This whole solo is played in 25 seconds so better play those hammer ons fast
the trick is pluck on the string with firger on 17 fret then then just go
really fast down the neck doing the hammer ons and pull offs

Pattern of the song:

Intro riff x8
Tapping    x2
Chorus     x2 play chord progression twice
flute      (comes in..play intro riff with the flute)
tapping    x2
Chorus     x2 play chord progression twice
Solo       mekaal harmonizing with flute...amazing!!!!!!!!!
tapping    x2
Chorus     x6 (play chord progression six times but listen two the song
              because there are gaps between the these progressions)

well this song has three guitars

#Clean electric: which plays the intro riff through out the song
#Electric with Effects: plays the solo and tapping
#Distorted Electric: Plays the chords for the chorus

okay guys thats it i am out i cant even feel my brains just kidding but i am really 
now well worked alot on this anyways enjoy the tab keep rocking :p for any improvements feel 
to contact me on my email address rocking_lead_guitar@hotmail.com later

| h  hammer-on
| p  pull-off
============================================================================
Related for Jhok Rajhan tab