Song name
# A B C D E F G H I J K L M N O P Q R S T U V W X Y Z

Mekaal Hasan Band - Sajan tab

Help us improve GuitareTab! Take a short survey!
INTRO:

e|---0---0---0-----0--0--0--|
B|---3-s-5---0-----3--5--0--|
G|---2---4---6-----2--4--6--|  X 2
D|---4---6---7-----4--6--7--|
A|---0---0---0-----0--0--0--|
E|---x---x---x-----x--x--x--|

e|---------------------------------------------------------------5--|
B|---------0---------0-------0-------0--------0--------0--------5---|
G|-------2---------1-------2-------1---------2--------1--------7----|
D|-----2---------2-------2-------2----------2--------2--------7-----|
A|------------------------------------------------------------------|
E|-2---------0--------2-------0---------0h2-------0--------7--------|


Chorus:


Sajan De Hath Baanh Saadee (2 times)

e|---0---0---0------0---0---0--|
B|---0---0---5------3---3---2--|
G|---6---6---4------2---2---2--|
D|---7---7---6------4---4---2--|  X 2
A|---0---0---0------0---0---0--|
E|---x---x---x------x---x---x--|

Kee kar aakhaan, chhad ve areya..... (2 times)

e|----------------------------------------------------------------------5-----5--5----|
B|---------0---------0--------0---------0---------0--------0----------5-------5--5----|
G|-------2---------1--------2---------1---------2--------1----------7---------7--7----|
D|-----2---------2--------2---------2---------2--------2----------7-------------------|
A|------------------------------------------------------------------------------------|
E|-2---------0---------2---------0--------0h2-------0---------7-----------------------|

Sajan De Hath Baanh Saadee (2 times)

e|---0---0---0------0---0---0--|
B|---0---0---5------3---3---2--|
G|---6---6---4------2---2---2--|
D|---7---7---6------4---4---2--|  X 2
A|---0---0---0------0---0---0--|
E|---x---x---x------x---x---x--|

Kee kar aakhaan, chhad ve areya..... (2 times)

e|----------------------------------------------------------------------5-----5--5----|
B|---------0---------0--------0---------0---------0--------0----------5-------5--5----|
G|-------2---------1--------2---------1---------2--------1----------7---------7--7----|
D|-----2---------2--------2---------2---------2--------2----------7-------------------|
A|------------------------------------------------------------------------------------|
E|-2---------0---------2---------0--------0h2-------0---------7-----------------------|

Sajan De Hath Baanh Saadee (2 times)

e|---0---0---0------0---0---0--|
B|---0---0---5------3---3---2--|
G|---6---6---4------2---2---2--|
D|---7---7---6------4---4---2--|  X 2
A|---0---0---0------0---0---0--|
E|---x---x---x------x---x---x--|


Flute solo with this playing in the back


e|----------------------------------------------------------------------5-----5--5----|
B|---------0---------0--------0---------0---------0--------0----------5-------5--5----|
G|-------2---------1--------2---------1---------2--------1----------7---------7--7----|
D|-----2---------2--------2---------2---------2--------2----------7-------------------|
A|------------------------------------------------------------------------------------|
E|-2---------0---------2---------0--------0h2-------0---------7-----------------------|

e|---0---0---0------0---0---0--|
B|---0---0---5------3---3---2--|
G|---6---6---4------2---2---2--|
D|---7---7---6------4---4---2--|  X 2
A|---0---0---0------0---0---0--|
E|---x---x---x------x---x---x--|

e|----------------------------------------------------------------------5-----5--5----|
B|---------0---------0--------0---------0---------0--------0----------5-------5--5----|
G|-------2---------1--------2---------1---------2--------1----------7---------7--7----|
D|-----2---------2--------2---------2---------2--------2----------7-------------------|
A|------------------------------------------------------------------------------------|
E|-2---------0---------2---------0--------0h2-------0---------7-----------------------|


Verse 1:


Raat Haneree Badal Kaniyan Baaj Wakeelan Mushkil Baniyan

|-------0-------0----------0-------------5---|
|------3-------3------------3-----------5----|
|-----1-------2--------------2---------7-----|
|------------0-----------0------------7------|
|---2----------------------------------------|
|-----------------------------------7--------|

Baaj Wakeelan Mushkil Banyan

|----0---------5------5-5---|
|-----2-------5-------5-5---|
|------3-----7--------7-7---|
|-----------7---------------|
|--0------------------------|
|---------7-----------------|
Dhaday Keeta Sadh Way Ariya Kee Ker Aakhan Chadway Ariya

|-------0-------0----------0-------------5---|
|------3-------3------------3-----------5----|
|-----1-------2--------------2---------7-----|
|------------0-----------0------------7------|
|---2----------------------------------------|
|-----------------------------------7--------|

Kee Ker Aakhan Chadway Ariya

|----0---------5------5-5---|
|-----2-------5-------5-5---|
|------3-----7--------7-7---|
|-----------7---------------|
|--0------------------------|
|---------7-----------------|

Kee ker aakhan chadway ariya (2 times)

e|---0---0---0------0---0---0--|
B|---0---0---5------3---3---2--|
G|---6---6---4------2---2---2--|
D|---7---7---6------4---4---2--|  X 2
A|---0---0---0------0---0---0--|
E|---x---x---x------x---x---x--|

Sajan De Hath Baanh Saadee (2 times)

e|----------------------------------------------------------------------5-----5--5----|
B|---------0---------0--------0---------0---------0--------0----------5-------5--5----|
G|-------2---------1--------2---------1---------2--------1----------7---------7--7----|
D|-----2---------2--------2---------2---------2--------2----------7-------------------|
A|------------------------------------------------------------------------------------|
E|-2---------0---------2---------0--------0h2-------0---------7-----------------------|


Next Guitar Solo with this in the background (2 times)

e|---0---0---0------0---0---0--|
B|---0---0---5------3---3---2--|
G|---6---6---4------2---2---2--|
D|---7---7---6------4---4---2--|  X 2
A|---0---0---0------0---0---0--|
E|---x---x---x------x---x---x--|

e|----------------------------------------------------------------------5-----5--5----|
B|---------0---------0--------0---------0---------0--------0----------5-------5--5----|
G|-------2---------1--------2---------1---------2--------1----------7---------7--7----|
D|-----2---------2--------2---------2---------2--------2----------7-------------------|
A|------------------------------------------------------------------------------------|
E|-2---------0---------2---------0--------0h2-------0---------7-----------------------|


  SOLO:

e:-------------------------------5-5-5s7-7~-5-7-7-7s10--------------------------------------|
B:--5-5-5s7~-5s3-2-3-5-5-5p3s2-2-------------------------5h7-5-3-2-3s5s2-2~-----------------|
G:------------------------------------------------------------------------------------------|
D:------------------------------------------------------------------------------------------|
A:------------------------------------------------------------------------------------------|
E:------------------------------------------------------------------------------------------|

e:---------------------------------5h7-5---5-7s9-9-7-7---4-5------------5-------7---7-9---------------------0---|
B:--2-----------------5s7-5-5~-5h7-------7-------------------7--5-7-5------(5)----------7-7h9-9-10-10---0-----0-|
G:----4-2-2h4-6-6-4-2-------------------------------------------------6---6---6---6-----------------------2-----|
D:--------------------------------------------------------------------------------------------------------------|
A:-----------------------------------------------------------------------------------------------------0--------|
E:--------------------------------------------------------------------------------------------------------------|

e:--9-9----------------------7-7-7-5-4-4h5---------------------------------------------------------------|
B:------9--5-7-5--5-------5----------------5s7-5-3s2-3-5-7-----------------------------------------------|
G:------------------6-4-6----------------------------------6---------------------------------------------|
D:-----------------------------------------------------------7-7h9--------7------------7-9-7h9-9-7H9-7H9-|
A:------------------------------------------------------------------7-7h9-------7--7h9-------------------|
E:--------------------------------------------------------------------------7h9--------------------------|

e:---------5-4------------------7-9-7-5-4~-----------------------10-12s14-12~---|
B:-------------5-5s7-7-5~---5-7----------------------------10-12----------------|
G:------------------------7-------------------------7-9-11----------------------|
D:-7-9------------------------------------------7-9-----------------------------|
A:-----7----------------------------------5-7-9---------------------------------|
E:------------------------------------------------------------------------------|

Verse 2:


Nit Bharnai Chatiyan Ik Din Jaa Say Chadway Ariya

|-------0-------0----------0-------------5---|
|------3-------3------------3-----------5----|
|-----1-------2--------------2---------7-----|
|------------0-----------0------------7------|
|---2----------------------------------------|
|-----------------------------------7--------|

Ik Din Jaa Say Chadway Ariya

|----0---------5------5-5---|
|-----2-------5-------5-5---|
|------3-----7--------7-7---|
|-----------7---------------|
|--0------------------------|
|---------7-----------------|

Kahay Hussain Faqeer Saein Da Nain Naina nal Gad way Ariya

|-------0-------0----------0-------------5---|
|------3-------3------------3-----------5----|
|-----1-------2--------------2---------7-----|
|------------0-----------0------------7------|
|---2----------------------------------------|
|-----------------------------------7--------|

Nain Naina nal Gadway Ariya

|----0---------5------5-5---|
|-----2-------5-------5-5---|
|------3-----7--------7-7---|
|-----------7---------------|
|--0------------------------|
|---------7-----------------|

Kee ker aakhan chadway ariya

e|---0---0---0------0---0---0--|
B|---0---0---5------3---3---2--|
G|---6---6---4------2---2---2--|
D|---7---7---6------4---4---2--|  X 2
A|---0---0---0------0---0---0--|
E|---x---x---x------x---x---x--|


Chorus:


Sajan De Hath Baanh Saadee (2 times)

e|----------------------------------------------------------------------5-----5--5----|
B|---------0---------0--------0---------0---------0--------0----------5-------5--5----|
G|-------2---------1--------2---------1---------2--------1----------7---------7--7----|
D|-----2---------2--------2---------2---------2--------2----------7-------------------|
A|------------------------------------------------------------------------------------|
E|-2---------0---------2---------0--------0h2-------0---------7-----------------------|

Kee ker aakhan chadway ariya (2 times)

e|---0---0---0------0---0---0--|
B|---0---0---5------3---3---2--|
G|---6---6---4------2---2---2--|
D|---7---7---6------4---4---2--|  X 2
A|---0---0---0------0---0---0--|
E|---x---x---x------x---x---x--|

Sajan De Hath Baanh Saadee (2 times)

e|----------------------------------------------------------------------5-----5--5----|
B|---------0---------0--------0---------0---------0--------0----------5-------5--5----|
G|-------2---------1--------2---------1---------2--------1----------7---------7--7----|
D|-----2---------2--------2---------2---------2--------2----------7-------------------|
A|------------------------------------------------------------------------------------|
E|-2---------0---------2---------0--------0h2-------0---------7-----------------------|

Sajan De Hath Baanh Saadee (2 times)

e|----------------------------------------------------------------------5-----5--5----|
B|---------0---------0--------0---------0---------0--------0----------5-------5--5----|
G|-------2---------1--------2---------1---------2--------1----------7---------7--7----|
D|-----2---------2--------2---------2---------2--------2----------7-------------------|
A|------------------------------------------------------------------------------------|
E|-2---------0---------2---------0--------0h2-------0---------7-----------------------|

This last riff goes on over and over...
Related for Sajan tab