Song name
# A B C D E F G H I J K L M N O P Q R S T U V W X Y Z

Mekaal Hasan Band - Andholan tab

----------------------------------------------------------------------------
			     andholan - Mekaal hasan band
----------------------------------------------------------------------------
Tabbed
khan and ahmed nadeem
Email:rocking_lead_guitar@hotmail.com

Tuning:standard (EADGBe)

okay me and ahmed nadeem worked on this one and its like correction to my solo well this
the solo of the song andholan the song is quiet old but since nobody tabbed the solo
some of my freinds also needed it so i tabbed it and the other guy tabbed the flute solo 
on the guitar
not the real solo which he plays in the video ....i will also give the timing of it so
easier to figure it out

Solo:

this is played in 6.02 secs

e|-------------------------------------------------------------------------|
B|---4s6h8p6h8p6h8p6s8h10p8h11---8-10-8-10s11--9s10--5s6-------------------|
G|-------------------------------------------------------------------------|
D|-------------------------------------------------------------------------|
A|-------------------------------------------------------------------------|
E|-------------------------------------------------------------------------|

play this really fast cuz its played in 7.62 secs

e|--10-9-7-----------------------------------------------------------------|
B|--------9-7-6------------------------------------------------------------|
G|-------------7-----------------------------------------------------------|
D|--------------8-7-5s7-8b--8-7-5------------------------------------------|
A|-------------------------------8-6-5------6t8t10t11t13*------------------|
E|------------------------------------9-7-4-4s6s-8-9s-10-------------------|

this part is played in 7.48 secs

  [-----PALM MUTED-----------------------------------------------------------|
|-------------------10-10--13---17-13-------------------------13-17----------|
|-------------10-10-------------------15-------------------15----------------|
|-------10-10----------------------------14-------------14-------------------|
|-12-12-------------------------------------15-------15----------------------|
|----------------------------------------------17-17-------------------------|
|----------------------------------------------------------------------------|


e|15b-13b|
B|-------|
G|-------|
D|-------|
A|-------|
E|-------|till here

now the fast part comes try to play like him hes pretty fast
and continue the scale till 9s15 ...its played in 6.14 secs =p

[ITS MOSTLY LEGATO WITH SOME TAPPING]

e|-------------------------------------------------------------------------|
B|-------------------------------------------------------------------------|
G|-------------------------------------------------------------------------|
D|---------------------------------------------------------------11h12h14--|
A|---------------------------------10h12h13t16p13p12p10-10h12h13-----------|
E|-10h12h13t15p13p12p10-10h12h13-------------------------------------------|

e|-------------------------------------------------------------------------|
B|-------------------------------------------------------------------------|
G|-------------------------------10h12h14-10h12h14t16p14p12p10-------------|
D|-11h12h14t15p14p12p11-11h12h14-------------------------------------------|
A|-------------------------------------------------------------------------|
E|-------------------------------------------------------------------------|

e|-------------------------------------------------12h13h15-s17-s15-s13-10-|
B|----------11h14h15-11h14h15t17p15p14p11-11h14h15-------------------------|
G|-10h12h14----------------------------------------------------------------|
D|-------------------------------------------------------------------------|
A|-------------------------------------------------------------------------|
E|-------------------------------------------------------------------------|

well i guess this is it took me days to finalize this anyways hope it gets
accepted have fun with it later there might be some notes missing in the last part but
rest i think its pretty accurate plus he uses a effets in the song as well so dont worry
amazing later contact me for improvements on the email address
============================================================================
Tap to rate this tab
# A B C D E F G H I J K L M N O P Q R S T U V W X Y Z