Song name
# A B C D E F G H I J K L M N O P Q R S T U V W X Y Z

Mekons - Amnesia tab

INTRO
e-5-2-0-----5-2-0-------/
B--------2----------2---/
G-----------------------/
D-----------------------/
A-----------------------/
E-----------------------/

BASS RIFF
e-----------------------------------------------------/
B-----------------------------------------------------/
G-----------------------------------------------------/
D-------------------------------------0-2-0-----------/
A--------------------------------0-2--------2-0-------/
E5-3-0-5--------5-3-0-5----3--------------------------/

A                                                                    G
It was a dark and stormy night and the ship was tossing on the open seas
A
C
Rolling and tossing and turning in the bunk, the first mate, the bossun
and me
A                                              G
>From Bristol to the Ivory Coast, then on to Jamaica
A                                                                      D
Down in the hold there is no sound, we're bringing rock'n'roll to

(chorus breaks in 1 bar early with last word of verse)
   D

   Bless my soul what's wrong with me
     C
I forgot to forget to remember

The king of England waits in exile in the crack fields of Bolivia
The Burning White House, the Shining Path, back to reconquer Americay
Eric Burden stunned in Mississippi on the Animals US tour
Mardi Gras Indian segregation, 1964

Up the river wah wah throbbing heavy artillary
Blackface painted floodlit jungle gringo military
Any old army high on drugs fighting that rock n' roll war
Truth justice and Led Zeppelin heavy metal marine corps
Tap to rate this tab
 
# A B C D E F G H I J K L M N O P Q R S T U V W X Y Z