Song name
# A B C D E F G H I J K L M N O P Q R S T U V W X Y Z

Melanie Fiona - It Kills Me Acoustic tab

Artist : Melanie Fiona 
Song   : It Kills Me (Acoustic)
Link   : http://www.youtube.com/watch?v=XkrTcEMc-Dc
Tabbed By : Yousif Jamal
Tuning : Standard
Country : Iraq/Baghdad


Chords :
Csus4/5-/C# A#/C  Cm     G#
e|--8---------6-----3-----4--|
b|--6---------3-----4-----4--|
G|--5---------3-----5-----5--|
D|--4---------3-----5-----6--|
A|--4---------3-----3-----6--|
E|------------------------4--|

 [0:00  0:17]
Csus4/5-/C#         
e|-8------8----------88-6-4---|
b|----6-----6---6-------------|
G|------5-----5---------------|X2 
D|----------------------------|
A|-4-----------------44-4-4---|
E|----------------------------|

A#/C

e|-6------6----------346-6----|
b|----3-----3---3-------------|
G|------3-----3---------------|
D|----------------------------|
A|-3-----------------333-3----|
E|----------------------------|

e|-6------6-------------------|
b|----3-----3---3-------------|
G|------3-----3---------------|
D|----------------------------|
A|-3--------------------------|
E|-------------------6/8------|

[0:17  0:35 ]

Csus4/5-/C#         
e|-8------8----------88-6-4---|
b|----6-----6---6-------------|
G|------5-----5---------------|X2 
D|----------------------------|
A|-4-----------------44-4-4---|
E|----------------------------|

A#/C

e|-6------6----------346-6----|
b|----3-----3---3-------------|
G|------3-----3---------------|
D|----------------------------| X2
A|-3-----------------333-3----|
E|----------------------------|

[0:35  0:47]
Csus4/5-/C#                          A#/C 
e|---------8----------------8----------------6--------------6------|
b|-----6-----6---6------6-----6---6------3-----3--3-----3-----3---3|
G|---5---5-----5------5---5-----5------3---3-----3----3---3-----3--|
D|-----------------------------------------------------------------|
A|-4----------------4----------------3--------------3--------------|
E|-----------------------------------------------------------------|


[0:47  0:51]

Cm

e|-----------|
b|-----------|
G|-333333333-|
D|-333333333-| 
A|-333333333-|
E|-----------|

[0:52  1:09]

 Cm
e|----------------|
b|-4-444----------|
G|-5-555----------|
D|----------------| x4
A|-3-333-----1--3-|
E|--------3-------|

[1:09  1:24]

Im Not Sure About This Part But I Think Its An Arpeggio Of Cm , G#

[1:24  1:26]
e|-6h8h6------|
b|--------9-8-|
G|------------|
D|------------| 
A|------------|
E|------------|

The Rest of The Song Is Just Repeated Parts .............. 


Tap to rate this tab
# A B C D E F G H I J K L M N O P Q R S T U V W X Y Z