Song name
# A B C D E F G H I J K L M N O P Q R S T U V W X Y Z

Melechesh - Caravans Of Ur tab

Help us improve GuitareTab! Take a short survey!
Song: Melecesh - Caravans of Ur
Transcriber: SlayerSYD (slayersyd@gmail.com)
Tuning: Drop 1 step down (DAFCGD)

Guitar 1: Electric, Distorted
Guitar 2: Electric, Distorted



Main Riff:

         |--3--|    |--3--|                    |--3--|    |--3--|                 
     E  S  S  S E  S  S  S E  E  E  E      E  S  S  S E  S  S  S E  E  E  E
D||-------------------------------------|--------------------------------------||
A||-------------------------------------|--------------------------------------||
F||-------------------------------------|--------------------------------------||
C||-------------------------------------|------------------------------9~~~~---||
G||-----7h-8p-7----7h-8p-7-------7~~~~--|-----7h-8p-7----7h-8p-7-------7~~~~---||
D||--0----------0----------0--0---------|--0----------0----------0--------------||
PM   .          .          .  .            .          .          .


Riff 1:

      S  S  E  E  E  E  E  E  E      S  S  E  E   E   E   E   E   
D||------------------------------|-------------------------------|
A||------------------------------|-------------------------------|
F||------------------------------|-------------------------------|
C||------------------------------|-------------------------------|
G||--10-10-10--9--9--6--7--------|--10-10-10--9--10--12--12--14--|
D||------------------------------|-------------------------------|

    S  S  E  E  E  E  E  E  E     E  E  E  Q  Q    
|------------------------------|----------------||
|------------------------------|----------------||
|------------------------------|----------------||
|------------------------------|----------------||
|--10-10-10--9--9--6--7-----3--|--3--3--5--2~~~-||
|------------------------------|----------------||



Bridge: (its not very accurate, but its not hard to get it, just listen to the song)
								     
     T T T T T T T T T T T T T T T T T T T T T T T T T T T T T T T T
D||------------------------------------------------------------------|
A||------------------------------------------------------------------|
F||------------------------------------------------------------------|
C||------------------------------------------------------------------|
G||--7-7-7-7-7-7-7-7-7-7-7-7-7-7-7-7-7-7-7-7-7-7-7-7-7-7-8-8-8-8-8-8-|
D||------------------------------------------------------------------|

|first time:
|  T T T T T T T T T T T T  T  T  T  T  T  T  T  T  T  T  T  T  T  T  T  T T 
|----------------------------------------------------------------------------------|
|----------------------------------------------------------------------------------|
|----------------------------------------------------------------------------------|
|----------------------------------------------------------------------------------|
|--5-5-5-5-5-5-5-5-5-5-5-5-10-10-10-10-14-14-14-14-14-14-14-14-14-14-14-14-8-8-8-8-|
|----------------------------------------------------------------------------------|

|second time:
|  T T T T T T T T T T T T T T T T  T  T  T  T  T  T  T  T  T  T  T  T T T T 
|------------------------------------------------------------------------------||
|------------------------------------------------------------------------------||
|------------------------------------------------------------------------------||
|------------------------------------------------------------------------------||
|--5-5-5-5-5-5-5-5-5-5-5-5-5-5-5-5-10-10-10-10-10-10-14-14-14-14-14-14-8-8-8-8-||
|------------------------------------------------------------------------------||


Riff 2:

     S S S S S S S S S S S S E  E     S S S S S S S S E  E  E  E    
D||--------------------------------|------------------------------||
A||--------------------------------|------------------------------||
F||--------------------------------|------------------------------||
C||--------------------------------|------------------------9~~~--||
G||------7-8-----7-8---------7~~~--|------7-8-----7-8-------7~~~--||
D||--0-0-----0-0-----0-0-0-0-------|--0-0-----0-0-----0-----------||
PM   . .     . .     . . . .          . .     . .     .


Riff 3:

      E   E   E   E   E  E  E  E      E   E   E   E   E  E  E  E     
D||-------------------------------|--------------------------------||
A||-------------------------------|--------------------------------||
F||-------------------------------|--------------------------------||
C||-------------------------------|--------------------------------||
G||--10--12--14--12--10\-8\-7~~~--|--10/-12/-14\-12\-10\-8\-7~~~---||
D||-------------------------------|--------------------------------||


Riff 4:

     E  E  E  E  E  E  E  E     E  E  E  E  Q    Q       
D||--------------------------|-------------------------||
D||--------------------------|-------------------------||
D||--------------------------|------------------------*||
D||--------------------------|------------------------*||
D||--7--8--7--5--5--8--7-----|--7--8--7--5--3----2-----||
D||--------------------------|--------------1----0-----||

Song Order:
Main Riff  x1 (1 gtr)
Main Riff  x5 (2 gtrs)
Riff 1     x1 (1 gtr, 2nd guitar does Main Riff)
Main Riff  x4
Riff 1     x1 (1 gtr, 2nd guitar does Main Riff)
Bridge     x1 (2 gtrs)
Riff 2     x2 (2 gtrs)
Riff 3     x4 (2 gtrs)
Riff 4     x4 (2 gtrs)
Riff 3&4   until fade (gtr 1 - riff 3, gtr 2 - riff 4)



Duration Legend
---------------
W - whole
H - half
Q - quarter
E - 8th
S - 16th
T - 32nd


Tablature Legend
----------------
h - hammer on
p - pull off
n\- play note, then slide down
/n- slide up, then play note
~ - vibrato

Related for Caravans Of Ur tab