Song name
# A B C D E F G H I J K L M N O P Q R S T U V W X Y Z

Melee - War tab

Tab By: Jesse Odom

Angels and Airwaves - The War

This is a really good song off of AVA's album. Its one of my favorites outside of start 
machine. Well i figured i give a stab at it and tab it since its pretty simple.


Drop D Tuning (DADGBe)

Intro Riff (with slight delay)

PM..............................................
e|--------------------------------------------------|
B|--------------------------------------------------|
G|--------------------------------------------------|  Repeats like 8 times
D|---------7----7---7-5-----4-----------------------|
A|-4h5-5-5-5--5-5-5-5-5-5---5---5-5-5---------------|
D|--------------------------------------------------|

then guitars kick in

e|-------------------------------------------------------|
B|-------------------------------------------------------|
G|-------------------------------------------------------|
D|-7-7-7-7--7-7-7-7--7-7-7-7--7-7-7-7--7-7-7-7--7-7-7-7--|
A|-5-5-5-5--5-5-5-5--7-7-7-7--5-5-5-5--5-5-5-5--7-7-7-7--|
D|-0-0-0-0--0-0-0-0--7-7-7-7--0-0-0-0--0-0-0-0--7-7-7-7--|

e|-----------------------------------------------------|
B|-----------------------------------------------------|
G|-----------------------------------------------------|
D|-9-9-9-9--9-9-9-9--5-5-5-5--7-7-7-7--7-7-7-7~--55-5--|
A|-9-9-9-9--9-9-9-9--5-5-5-5--5-5-5-5--7-7-7-7~--55-5--|
D|-9-9-9-9--9-9-9-9--5-5-5-5--0-0-0-0--7-7-7-7~--55-5--|
                                                 ..

End second time on

e|---------------------------------------------|
B|---------------------------------------------|
G|---------------------------------------------|
D|-0~------------------------------------------|
A|-0~------------------------------------------|
D|-0~------------------------------------------|


Clean Guitar (2) through the verse

e|----------------------------------------------|
B|----------------------------------------------|
G|-2-------2-------2----------------------------|
D|-0--x16--0--x16--0--x32-----------------------|
A|-0-------0-------0----------------------------|
D|-0-------4-------5----------------------------|

Pre-Chorus

e|-------------------------------------------------|
B|-------------------------------------------------|
G|---7-7-7-7--7-7-7-7--7-7--7-7-7-7--7-7-7-7--7-7--|
D|---x-x-x-x--x-x-x-x--x-x--x-x-x-x--x-x-x-x--x-x--|
A|---5-5-5-5--5-5-5-5--5-5--5-5-5-5--5-5-5-5--5-5--|
D|---0-0-0-0--0-0-0-0--0-0--7-7-7-7--7-7-7-7--7-7--|


e|-------------------------------------------------|
B|-------------------------------------------------|
G|---7-7-7-7--7-7-7-7--7-7--7-7-7-7--7-7-7-7--7-7--|
D|---x-x-x-x--x-x-x-x--x-x--x-x-x-x--x-x-x-x--x-x--|
A|---5-5-5-5--5-5-5-5--5-5--5-5-5-5--5-5-5-5--5-5--|
D|---9-9-9-9--9-9-9-9--9-9--7-7-7-7--7-7-7-7--7-7--|


Chorus
Guitar 1
e|-----------------------------------------------|
B|-----------------------------------------------|
G|-7-7-7-7--7-7-7-7--7-7--7-7-7-7--7-7-7-7--7-7--|
D|-x-x-x-x--x-x-x-x--x-x--x-x-x-x--x-x-x-x--x-x--|
A|-5-5-5-5--5-5-5-5--5-5--5-5-5-5--5-5-5-5--5-5--|
D|-----------------------------------------------|

Guitar 2
e|-----------------------------------------------|
B|-----------------------------------------------|
G|-----------------------------------------------|
D|-0-0-0-0--0-0-0-0--0-0--0-0-0-0--0-0-0-0--0-0--|
A|-0-0-0-0--0-0-0-0--0-0--0-0-0-0--0-0-0-0--0-0--|
D|-0-0-0-0--0-0-0-0--0-0--0-0-0-0--0-0-0-0--0-0--|

Guitar 1
e|-----------------------------------------------|
B|-----------------------------------------------|
G|-7-7-7-7--7-7-7-7--7-7--7-7-7-7--7-7-7-7--7-7--|
D|-x-x-x-x--x-x-x-x--x-x--x-x-x-x--x-x-x-x--x-x--|
A|-5-5-5-5--5-5-5-5--5-5--5-5-5-5--5-5-5-5--5-5--|
D|-----------------------------------------------|

Guitar 2
e|-----------------------------------------------|
B|-----------------------------------------------|
G|-----------------------------------------------|
D|-7-7-7-7--7-7-7-7--7-7--7-7-7-7--7-7-7-7--7-7--|
A|-7-7-7-7--7-7-7-7--7-7--7-7-7-7--7-7-7-7--7-7--|
D|-7-7-7-7--7-7-7-7--7-7--7-7-7-7--7-7-7-7--7-7--|

Guitar 1
e|-----------------------------------------------|
B|-----------------------------------------------|
G|-7-7-7-7--7-7-7-7--7-7--7-7-7-7--7-7-7-7--7-7--|
D|-x-x-x-x--x-x-x-x--x-x--x-x-x-x--x-x-x-x--x-x--|
A|-5-5-5-5--5-5-5-5--5-5--5-5-5-5--5-5-5-5--5-5--|
D|-----------------------------------------------|

Guitar 2
e|-----------------------------------------------|
B|-----------------------------------------------|
G|-----------------------------------------------|
D|-5-5-5-5--5-5-5-5--5-5--5-5-5-5--5-5-5-5--5-5--| x2
A|-5-5-5-5--5-5-5-5--5-5--5-5-5-5--5-5-5-5--5-5--|
D|-5-5-5-5--5-5-5-5--5-5--5-5-5-5--5-5-5-5--5-5--|


Back to Intro

e|-------------------------------------------------------|
B|-------------------------------------------------------|
G|-------------------------------------------------------|
D|-7-7-7-7--7-7-7-7--7-7-7-7--7-7-7-7--7-7-7-7--7-7-7-7--|
A|-5-5-5-5--5-5-5-5--7-7-7-7--5-5-5-5--5-5-5-5--7-7-7-7--|
D|-0-0-0-0--0-0-0-0--7-7-7-7--0-0-0-0--0-0-0-0--7-7-7-7--|

e|-----------------------------------------------------|
B|-----------------------------------------------------|
G|-----------------------------------------------------|
D|-9-9-9-9--9-9-9-9--5-5-5-5--7-7-7-7--7-7-7-7~--55-5--|
A|-9-9-9-9--9-9-9-9--5-5-5-5--5-5-5-5--7-7-7-7~--55-5--|
D|-9-9-9-9--9-9-9-9--5-5-5-5--0-0-0-0--7-7-7-7~--55-5--|
                                                 ..


Verse 2

e|----------------------------------------------|
B|----------------------------------------------|
G|-2-------2-------2----------------------------|
D|-0--x16--0--x16--0--x32-----------------------|
A|-0-------0-------0----------------------------|
D|-0-------4-------5----------------------------|

pre-chorus

e|-------------------------------------------------|
B|-------------------------------------------------|
G|---7-7-7-7--7-7-7-7--7-7--7-7-7-7--7-7-7-7--7-7--|
D|---x-x-x-x--x-x-x-x--x-x--x-x-x-x--x-x-x-x--x-x--|
A|---5-5-5-5--5-5-5-5--5-5--5-5-5-5--5-5-5-5--5-5--|
D|---0-0-0-0--0-0-0-0--0-0--7-7-7-7--7-7-7-7--7-7--|

e|-------------------------------------------------|
B|-------------------------------------------------|
G|---7-7-7-7--7-7-7-7--7-7--7-7-7-7--7-7-7-7--7-7--|
D|---x-x-x-x--x-x-x-x--x-x--x-x-x-x--x-x-x-x--x-x--|
A|---5-5-5-5--5-5-5-5--5-5--5-5-5-5--5-5-5-5--5-5--|
D|---9-9-9-9--9-9-9-9--9-9--7-7-7-7--7-7-7-7--7-7--|

Chorus

Guitar 1
e|-----------------------------------------------|
B|-----------------------------------------------|
G|-7-7-7-7--7-7-7-7--7-7--7-7-7-7--7-7-7-7--7-7--|
D|-x-x-x-x--x-x-x-x--x-x--x-x-x-x--x-x-x-x--x-x--|
A|-5-5-5-5--5-5-5-5--5-5--5-5-5-5--5-5-5-5--5-5--|
D|-----------------------------------------------|

Guitar 2
e|-----------------------------------------------|
B|-----------------------------------------------|
G|-----------------------------------------------|
D|-0-0-0-0--0-0-0-0--0-0--0-0-0-0--0-0-0-0--0-0--|
A|-0-0-0-0--0-0-0-0--0-0--0-0-0-0--0-0-0-0--0-0--|
D|-0-0-0-0--0-0-0-0--0-0--0-0-0-0--0-0-0-0--0-0--|

Guitar 1
e|-----------------------------------------------|
B|-----------------------------------------------|
G|-7-7-7-7--7-7-7-7--7-7--7-7-7-7--7-7-7-7--7-7--|
D|-x-x-x-x--x-x-x-x--x-x--x-x-x-x--x-x-x-x--x-x--|
A|-5-5-5-5--5-5-5-5--5-5--5-5-5-5--5-5-5-5--5-5--|
D|-----------------------------------------------|

Guitar 2
e|-----------------------------------------------|
B|-----------------------------------------------|
G|-----------------------------------------------|
D|-7-7-7-7--7-7-7-7--7-7--7-7-7-7--7-7-7-7--7-7--|
A|-7-7-7-7--7-7-7-7--7-7--7-7-7-7--7-7-7-7--7-7--|
D|-7-7-7-7--7-7-7-7--7-7--7-7-7-7--7-7-7-7--7-7--|

Guitar 1
e|-----------------------------------------------|
B|-----------------------------------------------|
G|-7-7-7-7--7-7-7-7--7-7--7-7-7-7--7-7-7-7--7-7--|
D|-x-x-x-x--x-x-x-x--x-x--x-x-x-x--x-x-x-x--x-x--|
A|-5-5-5-5--5-5-5-5--5-5--5-5-5-5--5-5-5-5--5-5--|
D|-----------------------------------------------|

Guitar 2
e|-----------------------------------------------|
B|-----------------------------------------------|
G|-----------------------------------------------|
D|-5-5-5-5--5-5-5-5--5-5--5-5-5-5--5-5-5-5--5-5--| x2
A|-5-5-5-5--5-5-5-5--5-5--5-5-5-5--5-5-5-5--5-5--|
D|-5-5-5-5--5-5-5-5--5-5--5-5-5-5--5-5-5-5--5-5--|


e|---------------------------------------------|
B|---------------------------------------------|
G|---------------------------------------------|
D|-0~------------------------------------------|
A|-0~------------------------------------------|
D|-0~------------------------------------------|

Bridge

"Oh Oh Ohh Ohh Oh Oh Oh OH OH OH"

then

Clean Guitar
e|-------------------------------------------------|
B|-------------------------------------------------|
G|---7-7-7-7--7-7-7-7--7-7--7-7-7-7--7-7-7-7--7-7--|
D|---x-x-x-x--x-x-x-x--x-x--x-x-x-x--x-x-x-x--x-x--|
A|---5-5-5-5--5-5-5-5--5-5--5-5-5-5--5-5-5-5--5-5--|
D|---0-0-0-0--0-0-0-0--0-0--7-7-7-7--7-7-7-7--7-7--|

e|-------------------------------------------------|
B|-------------------------------------------------|
G|---7-7-7-7--7-7-7-7--7-7--7-7-7-7--7-7-7-7--7-7--|
D|---x-x-x-x--x-x-x-x--x-x--x-x-x-x--x-x-x-x--x-x--|
A|---5-5-5-5--5-5-5-5--5-5--5-5-5-5--5-5-5-5--5-5--|
D|---9-9-9-9--9-9-9-9--9-9--7-7-7-7--7-7-7-7--7-7--|

Chorus

Outro

e|-------------------------------------------------------|
B|-------------------------------------------------------|
G|-------------------------------------------------------|
D|-7-7-7-7--7-7-7-7--7-7-7-7--7-7-7-7--7-7-7-7--7-7-7-7--|
A|-5-5-5-5--5-5-5-5--7-7-7-7--5-5-5-5--5-5-5-5--7-7-7-7--|
D|-0-0-0-0--0-0-0-0--7-7-7-7--0-0-0-0--0-0-0-0--7-7-7-7--|

e|---------------------------------------------------------------|
B|---------------------------------------------------------------|
G|---------------------------------------------------------------|
D|-9-9-9-9--9-9-9-9--5-5-5-5--7-7-7-7--7-7-7-7~--55-5--x2---0~---|
A|-9-9-9-9--9-9-9-9--5-5-5-5--5-5-5-5--7-7-7-7~--55-5-------0~---|
D|-9-9-9-9--9-9-9-9--5-5-5-5--0-0-0-0--7-7-7-7~--55-5-------0~---|
                                                 ..

then it ends with the 'Oh OH OH'

well thats it. hope you like it

Tap to rate this tab
# A B C D E F G H I J K L M N O P Q R S T U V W X Y Z