Song name
# A B C D E F G H I J K L M N O P Q R S T U V W X Y Z

Melissa Etheridge - I Want To Come Over tab

Melissa Etheridge - I want to come over
KEY: E

E		E
i know you are home you left your light on
            D      A
you know im here
             E
the night is thin
E		E		E
i know you are alone i watched the car leave
              D      A
your lover is gone
       E
let me in

PRE
A
open your back door
B7                       A
i just need to touch you once more

CHORUS
               E
i want to come over
                 C#m
to hell with the consequence
                 A
you told me you love me
            D
thats all i believe
               E
i want to come over
      Abm
its a need i cant explain
   A               	D  A
to see you again
	       E
i want to come over
E	    E		        E
i know your friend you told her about me
                    D      A
she filled you with fear
	     E
some kind of sin
E	    E		     E
how can you turn denying the fire
        D      A
lover i burn
	E
let me in

PRE
EST

A	   B7
Oh oh oh ohh
A	   B7	E
Oh oh oh ohh

E		E		       E
i know youre confused i know that your shaken
                  D      A
you think we'll be lost
	E
once we begin
	    E		         E
i know your weak i know that you want me
	   D      A
lover dont speak
MUTE
let me in

EST

FINAL SOLO
e ----------------------------------------------------|
B ----------------------------------------------------|
G ----------------------------------------------------|
D --9--7--6-6------9--7--6--------9--7--6-------------|
A -------------------------7--------------9--^9--7----|
E ----------------------------------------------------|

e ----------------------------------------------------|
B ---------------12-----12--------------12------------|
G -------11-13-14---------14--13-13-------14--13------|
D --13-14---------------------------------------14----|
A ----------------------------------------------------|
E ----------------------------------------------------|


e ---------------------------------------------------|
B --12-----------------------------------------------|
G ----14--13-11--^11---------------------------------|
D ------------------14-------------------------------|
A ---------------------------------------------------|
E ---------------------------------------------------|

AND FADE AWAY WITH THE SOLO, ANY SUGGESTIONS JUST WRITE TO ME.
JOHN JOHN VILLERO
Tap to rate this tab
 
# A B C D E F G H I J K L M N O P Q R S T U V W X Y Z