Song name
# A B C D E F G H I J K L M N O P Q R S T U V W X Y Z

Melissa Horn - Jag Kan Inte Skilja Pa tab

Capo 7

Intro:
   
   Em            D             G

e|-------------|-------------|-------------|-------------|
B|------0------|------3------|------0------|------0------|
G|----0---0---0|----2---2---2|----0---0---0|----0---0---0|
D|----------0--|-0--------0--|----------0--|----------0--|
A|-------------|-------------|-------------|-------------|
E|-0-----------|-------------|-3-----------|-3-----------| X2  


Vers:

  Em             D             G

e|-------------|-------------|-------------|-------------|
B|------0------|------3------|------0------|------0------|
G|----0---0---0|----2---2---2|----0---0---0|----0---0---0|
D|----------0--|-0--------0--|----------0--|----------0--|
A|-------------|-------------|-------------|-------------|
E|-0-----------|-------------|-3-----------|-3-----------| X2  


  Em            D             G             C

e|-------------|-------------|-------------|-------------|
B|------0------|------3------|------0------|------1------|
G|----0---0---0|----2---2---2|----0---0---0|----0---0---0|
D|----------0--|-0--------0--|----------0--|----------0--|
A|-------------|-------------|-------------|-3-----------|
E|-0-----------|-------------|-3-----------|-------------|  


  D

e|-------------|
B|------3------|
G|----2---2---2|
D|-0--------0--|
A|-------------|
E|-------------| X4 


  Em             D             G

e|-------------|-------------|-------------|-------------|
B|------0------|------3------|------0------|------0------|
G|----0---0---0|----2---2---2|----0---0---0|----0---0---0|
D|----------0--|-0--------0--|----------0--|----------0--|
A|-------------|-------------|-------------|-------------|
E|-0-----------|-------------|-3-----------|-3-----------| X2  


  Em             D             G             C

e|-------------|-------------|-------------|-------------|
B|------0------|------3------|------0------|------1------|
G|----0---0---0|----2---2---2|----0---0---0|----0---0---0|
D|----------0--|-0--------0--|----------0--|----------0--|
A|-------------|-------------|-------------|-3-----------|
E|-0-----------|-------------|-3-----------|-------------|  


  D                                Dsus4

e|-------------|-------------|------2------|------3-------|
B|------3------|------3------|-------------|--------------|
G|----2---2---2|----2---2---2|----2---2---2|----2----2---2|
D|-0--------0--|-0--------0--|-0--------0--|-0---------0--|
A|-------------|-------------|-------------|--------------|
E|-------------|-------------|-------------|--------------|  


Refräng:

     Am                D

e|-0----0-0-|-0-0-0-0-|-2-2-2-2-|-2-2-2-2-|
B|-0h1--1-1-|-1-1-1-1-|-3-3-3-3-|-3-3-3-3-|
G|-0h2--2-2-|-2-2-2-2-|-2-2-2-2-|-2-2-2-2-|
D|-0h2--2-2-|-2-2-2-2-|-0-0-0-0-|-0-0-0-0-|
A|-0----0-0-|-0-0-0-0-|---------|---------|
E|----------|---------|---------|---------| X5 


  Em        G         D

e|-0-0-0-0-|-3-3-3-3-|-2-2-2-2-|-2-2-2-2-|
B|-0-0-0-0-|-0-0-0-0-|-3-3-3-3-|-3-3-3-3-|
G|-0-0-0-0-|-0-0-0-0-|-2-2-2-2-|-2-2-2-2-|
D|-2-2-2-2-|-0-0-0-0-|-0-0-0-0-|-0-0-0-0-|
A|-2-2-2-2-|-2-2-2-2-|---------|---------|
E|-0-0-0-0-|-3-3-3-3-|---------|---------| X2 
Tap to rate this tab
 
# A B C D E F G H I J K L M N O P Q R S T U V W X Y Z