Song name
# A B C D E F G H I J K L M N O P Q R S T U V W X Y Z

Melissa Liznick - Ravish tab

Intro: G, D(on third string you can do the 2nd fret a second
after the chord, it sounds more like the song), Am (same deal) and C.
    G                       D
[-------------------------------------------------|
[-----------0------------------------3---------0--|
[-------0------0----0------------2-------2--------|
[----------------0------------0-------------0-----|
[-------------------------------------------------|
[----3--------------------------------------------|


     Am                           C
[-------------------------------------------------------------|
[----------1----0---1---------------------0^1-(0h1?)---0---1--|
[------2---------------2---0---------------------0------------|
[---2------------------------------------------------2--------|
[----------------------------------3-3------------------------|
[-------------------------------------------------------------|


Basically this is it through the whole song, you can modify it
though. I don't really know how to explain the C thing, you just
go from open to 1 really fast without plucking the string again,
I think you get the gist. I've seen it written with an h tho.
Email corrections to: melliz55@hotmail.com
Tap to rate this tab
# A B C D E F G H I J K L M N O P Q R S T U V W X Y Z