Song name
# A B C D E F G H I J K L M N O P Q R S T U V W X Y Z

Melissa Mcclelland - Rooftop tab

Intro, verse, and outro:

E |----------7------------------------------------------|
B |-7-------------------3-------------------------------|
G |---0--------0-------------------0--------------------|
D |-----0--------0----------0----0---0------------------|
A |-7--------5----------0h3---3-------------------------|
E |-----------------------------------------------------|

Chorus and bridge:

First part:

E |--0--------2---------2--------2----------------------|
B |----1---1----3---3-----0---0----0---0----------------|
G |------0--------2---------0--------0------------------|
D |--2--------0---------3--------3----------------------|
A |-----------------------------------------------------|
E |-----------------------------------------------------|

Second and third part:

E |--0--------2---------3--------2----------------------|
B |----1---1----3---3-----0---0----0---0----------------|
G |------0--------2---------0--------2------------------|
D |--2--------0---------2--------1----------------------|
A |-----------------------------------------------------|
E |-----------------------------------------------------|

Fourth part:

E |--0--------2-----------------------------------------|
B |----1---1----3---3---------3-------------------------|
G |------0--------2---------------------0---------------|
D |--2--------0-------------------0---0---0-------------|
A |---------------------------0h3---3-------------------|
E |-----------------------------------------------------|
Tap to rate this tab
# A B C D E F G H I J K L M N O P Q R S T U V W X Y Z