Song name
# A B C D E F G H I J K L M N O P Q R S T U V W X Y Z

Melissa Oneil - Let It Go tab

it is played  fast!!!

except this part :)
e [--------------------------]
b [--------------------------]
g [--------------------------]
d [8--7--3--10--8--7~~0------]
a [8--7--3--10--8--7~~0------]
d [8--7--3--10--8--7~~0------]

e[--------------------------------------------------------------]
b[--------------------------------------------------------------]
g[--------------------------------------------------------------]
d[0-0-8-0-7-0-3-0-0-8-0-7-0-5-0-0-10-0-9-0-8-0-10-9-0-8-0-3-----]
  x x   x   x   x x   x   x   x x    x   x   x      x   x=palm muted
a[-----------------------------------------------------------]
d[-----------------------------------------------------------]

e[-------------------------------------------------------------]
b[-------------------------------------------------------------]
g[-------------------------------------------------------------]
d[--0-0-8-0-7-0-3-0-0-8-0-7-0-5-0-0-10-0-9-0-8-0-10-0-9-0-8-3~~]
a[--0-0-----------0-0-----------0-0----------------------------]
d[--0-0-----------0-0-----------0-0----------------------------]

so this is really how the song goes. i wrote it i should know. this is a good song by 
BLUE CHERRIES. (yes thats my bands NAME!!!) check our myspace!!! oh and have fun with this 
i am only giving out parts of it.
this is one of our easiest tunes but it is fun to play and easy to head bang to.
Tap to rate this tab
 
# A B C D E F G H I J K L M N O P Q R S T U V W X Y Z