Song name
# A B C D E F G H I J K L M N O P Q R S T U V W X Y Z

Melissa Polinar - Try tab

Hi! This is my first time writing any tab so please just bear with me!
I hope/think this is pretty accurate.

Standard E tuning

Capo on 5th

Intro
Verse
Chorus
Verse
Chorus(second ending)
Bridge
Chorus(back to first, normal ending)

   (Intro)
e|--------3-----------------3-----3-----------|
B|---0h1-----3--3--3---0h1-----3-----4--------|
G|---0-------0--0--2---0-------0-----0--------|
D|-0------------------------------------------|
A|---0-------2--3------0-------2-----3--------|
E|-----------------2--------------------------|

    (Verse)
e|--------------------------------------|
B|-0h1--1---3---3---3---3---3---3-------|
G|-0----0---0---0---0---0---0---0-------|
D|--------------------------------------|  x3
A|-0----0---2---2---3---3---3---3-------|
E|--------------------------------------|

e|--------------------------------|
B|-0---0---2---2---3---3---3------|
G|-0---0---0---0---0---0---2------|
D|-------------------------0------|
A|---------0---0---3---3----------|
E|-0---0--------------------------|

    (Chorus)
e|-------------------------------------|
B|-3---3---3---3---0---0---1---0--3----|
G|-0---0---2---2---0---0---0---0--0----|
D|--------------------------------0----| x2
A|-------------------------0---3-------|
E|-3---3---2---2---0---0---------------|

e|--------------3---------------------|
B|-1---3--3--4-----4---1---3--3--4----|
G|-0---0--0--0---------0---0--0--0----|
D|------------------------------------|
A|-0---2--3--3---------0---2--3--3----|
E|------------------------------------|

    (2nd Chorus) different ending
e|-------------------------------------|
B|-3---3---3---3---0---0---1---0--3----|
G|-0---0---2---2---0---0---0---0--0----|
D|--------------------------------0----| x2
A|-------------------------0---3-------|
E|-3---3---2---2---0---0---------------|

e|--------------3------------------2---|
B|-1---3--3--4-----4----1---3--3---0---|
G|-0---0--0--0----------0---0--0-------|
D|---------------------------------1---|
A|-0---2--3--3----------0---2--3-------|
E|-------------------------------------|

    (Bridge)
e|--------------------------------------------------|
B|-3---1-------3---3---3---3---0---0---1---0---3----|
G|-3---1---2---0---0---2---2---0---0---0---0---2----|
D|---------3-----------------------------------0----|
A|-1-----------------------------------0---3--------|
E|-----4---1---3---3---2---2---0---0----------------|
Tap to rate this tab
# A B C D E F G H I J K L M N O P Q R S T U V W X Y Z