Song name
# A B C D E F G H I J K L M N O P Q R S T U V W X Y Z

Melissa Polinar - Meant To Be tab

I LOVE THIS SONG. I just figured it out the other night and it's such a blast to play. 
I tried to format it the best I could but the spacing ended up weird... bare with 
me, haha I needed to get ready for work. >.>
Capo on 2nd fret. Tabs are relative to capo. These are simply the tabbed chords... 
listen to the song for the picking patterns. 
h means hammer on
/ means slide up to the note and
&arpeg means arpeggio, so pluck the strings one at a time from the top down. 
Good luck and enjoy! :)
Intro and Verses:
---0h2----x--x--0--0--x------|
-----x--0h2--2--x--x--0------|
-----2----0--0--2--2--2------|
-----2----2--2--2--1--2------|
-----0----2--3--2--0--0h2----|
-----x----x--x--x--x--0------|

Chorus:

"You can feel it..."

---x--x--2--x----|    
-0/5--4--x--2----|                       
--/7--6--2--4----|                          
--/7--6--2--4----|                          
--/7--5--2--3----|                              
---x--x--x--x----|       X2         

"You are the one..."

--------------------------------------|
-0------------------0h1---/4--2--/5---|
---2--------2---2----2-----5--4--/7---|
-----2--1---0---0----0-----0--2--/5---|
-----2--0---0---2----2-----5--3--/6---|
-----x--x-0-x-0-x----x-----x--x---x---|    


---------1-----0---                [--x-----]   
-0h2---------------                [--0-----]
-----4---3-----2---                [--2-----]
-----2---2-----1---                [--2-----]
-----4---1h3---0---                [--0h2---]
------------------- X2&arpeg [--0-----]

Repeat Verse once and Chorus once.

"I feel at home..."

                [-------]   -------------                       [----------]    Chorus and END. ☺
                [-------]   -0--0--0--2--                       [----------]
                [--0--0-]   -2--2--2--4--                       [--3--2----]
                [--2--2-]   -2--1--0--2--                       [--2--1----]
                [--2--1-]   -2--0--2--4--                       [--0--0----]
&arpeg     [--2--1-]   -------------    &arpeg  [--0--0----]
Tap to rate this tab
# A B C D E F G H I J K L M N O P Q R S T U V W X Y Z