Song name
# A B C D E F G H I J K L M N O P Q R S T U V W X Y Z

Mellow - Going Downtown tab

-------------------------------------------------------------------------------
			     Mellow - Going Downtown
-------------------------------------------------------------------------------
Tabbed by:lovelylight
Album: Perfect Colors
Tuning: EADGBe

E  A  E  A  E  A  E  A

E         A       E       A             E      A     E     A
Going downtown to get something for the weekend!
E         A       E     A                E     A     E     A
Going downtown to do my shopping for the weekend!
E         A       E       A             E      A     E     A
Going downtown to get something for the weekend!

For that little solo at the end i just play something like this:


e|--------------3---5---3----------------------------------------------------|
B|----3h5-------------------5---3--------------------------------------------|
G|--------------------------------------4---3--------------------------------|
D|-----------------------------------------------5---3-----------------------|
A|---------------------------------------------------------5---3-------------|
E|-----------------------------------------------------------------5s6-----3-|


Tap to rate this tab
 
# A B C D E F G H I J K L M N O P Q R S T U V W X Y Z