Song name
# A B C D E F G H I J K L M N O P Q R S T U V W X Y Z

Mellowdrone - Bone Marrow tab

Standard tuning

Intro/chorus
bass part
|---0/8--8-8-8-8-10-12-12-5-5-5-5-5-7-8-8-0-0-0-0-0-0-0-0-0-0-0-0-0-0-|
|---------------------------------------------------------------------|
|---------------------------------------------------------------------|
|---------------------------------------------------------------------|
|---------------------------------------------------------------------|
|---------------------------------------------------------------------|

guitar 1
|------------|
|------------|
|------------|
|---12\9-----|
|------------|
|------------|

guitar 2
|----------------------------------|
|--3-3-3-3-3-3-3-3-0-0-0-0-0-0-0-0-|
|--5-5-5-5-5-5-5-5-2-2-2-2-2-2-2-2-|
|--5-5-5-5-5-5-5-5-2-2-2-2-2-2-2-2-|
|----------------------------------|
|----------------------------------|

|--0-0-0-0-0-0-0-0-0-0-0-0-0-0-0-0-----|
|--2-2-2-2-2-2-2-2-2-2-2-2-2-2-2-2-----|
|--2-2-2-2-2-2-2-2-2-2-2-2-2-2-2-2-----|   
|--------------------------------------|
|--------------------------------------|
|--------------------------------------|
Tap to rate this tab
# A B C D E F G H I J K L M N O P Q R S T U V W X Y Z