Song name
# A B C D E F G H I J K L M N O P Q R S T U V W X Y Z

Melly Goeslaw - Bimbang tab

       Melly - Bimbang


        B6    C#/5+                  F#m       B6
     E  E  E  E     E  E  Q       E  E   E  E  E  E  Q
E||-----4--4--5-----5--4--4----|-----2---2--4--4--2--2----|
B||----------------------------|--------------------------|
G||-----4--4--6-----6--4--4----|-----2---2--4--4--2--2----|
D||----------------------------|--------------------------|
A||----------------------------|--------------------------|
E||--0-------------------------|--0-----------------------|

     G#/5+
  E  E     E  E  E  E  Q
-----0-----0--2--2--0--0---------------------------------------------|
---------------------------------------------------------------------|
-----1-----1--2--2--1--1---------------------------------------------|
---------------------------------------------------------------------|
---------------------------------------------------------------------|
--0------------------------------------------------------------------|


     D#/5+
  E  E     E  E  E  E  E  E
--------------0--0------------|
-----4-----4--------4---------|
-----4-----4-----------4--2~--|
------------------------------|
------------------------------|
--0---------------------------|


  G#/5+                                                         C#/5+
  E                                              E  E  E  E  E  E     E
----------------------------------------------------0--------------------|
----------------------------------------------------0-----------2--------|
--1-------------------------------------------------------------2--------|
-------------------------------------------------2-----2-----2--------2--|
----------------------------------------------------------0--------------|
--0----------------------------------------------------------------------|
  Per-                                         ta- ma    kali     aku


                     Bsus4          G#/5+
  E               E  E     E  E  E  Q
---------------------0-----------0--------|
---------------------0--------------------|
---------------------------1--2-----1-----|
------------------2-----------4-----2-----|
------------------------------------------|
--0---------------------------------------|
  ter-         gu-  gah


                                                G#/5+          C#/5+
  E                                          E  E     E  E  E  E     E
------------------------------------------------0-----------------------|
------------------------------------------------------0--2-----2--------|
------------------------------------------------1--------------2--------|
---------------------------------------------2--------------2--------2--|
---------------------------------------------------------0--------------|
--0---------------------------------------------------------------------|
  Da-                                        lam    setiap   kata yang


                                        D#sus4          C/5+
  E                                  E  E      E  E  E  Q
----------------------------------------4--------------------|
----------------------------------------4--------------------|
-------------------------------------6---------6--------5----|
--------------------------------------------------------6----|
--6--------------------------------------------------6-------|
--------------------------------------------------4----------|
                                 kau...           ucap


                             E6          E/5+
  E                       E  E  E  E  E  Q
----------------------------------------------|
-----------------------------5-----------5----|
-----------------------------6-----------5----|
--------------------------6-----6-----6-------|
--4--------------------------------4----------|
----------------------------------------------|
  Bila                  malam t'lah datang


                                              Bsus4          G#sus4
  E                                        E  E     E  E  E  Q
-------------------------------------------------------------4------|
----------------------------------------------5--------------2------|
----------------------------------------------4-----------3---------|
-------------------------------------------6--------6--4------------|
--4-----------------------------------------------------------------|
--------------------------------------------------------------------|
                                     terkadang   ingin ku tu-lis


              C#sus4                                        D#/5+    F#6
                                                            ^
  E        E  E      E  E  E  E  E     E           E  E  E  E     E  Q
--------------2---------2-----2-----|--------------------------------2----|
--------------2---------2-----2-----|-----------------------4--------4----|
---------------------2-----2-----2--|-----------------4-----4-------------|
-----------4------------------------|--------------4-----4--------4-------|
------------------------------------|--2----------------------------------|
--2---------------------------------|-------------------------------------|
       semua...                             perasaan...


  B6/E                            A6 G#/5+
                                                    ^
  E                               E  E     E  E  E  Q
--4-------------------------------2--0-----------2-------|
-------------------------------------------0--------4----|
--4-------------------------------2--1--------2----------|
---------------------------------------------------------|
----------------------------------------------0-----2----|
--0------------------------------------------------------|
                            Kata   orang  rindu itu


                 A6
  E     E  E  E  E  E  Q
-----------0--------0-------|
-----------0----------------|
--------1-----1--2-----1----|
-----------------4-----2----|
----------------------------|
--0-------------------------|
    indah


  E                                                  E  E  E  E  E  Q
--4--------------------------------------------------2--0--------2-------|
-----------------------------------------------------------0--------4----|
--4--------------------------------------------------2--1-----2----------|
-------------------------------------------------------------------------|
--------------------------------------------------------------0-----2----|
--0----------------------------------------------------------------------|
                                               Namun  bagiku   ini  menyik-


  E  E  E     E  E  E  Q       E                      E  E  E  E  E  Q
--------4-------------------|---------------------------------------------|
--------4--------------4----|----------------------------5-----------5----|
-----6--------6--------5----|----------------------------6-----------5----|
--------------------6-------|-------------------------6-----6-----6-------|
--6-------------------------|--4-------------------------------4----------|
-----------------4----------|---------------------------------------------|
        sa...                                Sejenak  kupikirkan...


  E                            E  E  E  E  E  Q
----------------------------------------------4----|
----------------------------------5-----------2----|
----------------------------------4--------3-------|
-------------------------------6-----6--4----------|
--4------------------------------------------------|
---------------------------------------------------|
                         untuk kubenci saja...


  E         E  E  E  E  E  E  E
---------------2-----2-----2-----|
---------------2-----2-----2-----|
------------------2-----2-----2--|
------------4--------------------|
---------------------------------|
--2------------------------------|
         dirimu...


                                          ^     ^
  E                                    E  E  E  Q    Q
-----------------------------------------------------2----|
------------------------------------------5-----4---------|
------------------------------------------4-----4---------|
---------------------------------------4-----4------------|
--2-------------------------------------------------------|
----------------------------------------------------------|
  namun                           sulit ku          mem-


  E        E  E  E  E  E  E  E     E  E  E  E  E   E  Q
-----------------0--------0-----|--------0---------0-------|
--------------0-----2--------2--|--0--------0--------------|
--------------1-----2-----------|--------------2S-----4----|
-----------2-----------2--------|-----2--------4S-----6----|
--------------------------------|--------------------------|
--0-----------------------------|--0-----------------------|
      benci...                                        Pe-


  S                                                  S S S S S S S S S S S S S S
---------------------------------------------------------------------------------|
-------------------------------------------------------0---2-----------2---4-----|
---------------------------------------------------------------2---------------4-|
-----------------------------------------------------2---2---2---2---4---4---4---|
--0----------------------------------------------------------------0-------------|
---------------------------------------------------------------------------------|
  jam                                                    kan  mata          bila


  S S S S S S S S S S S S S                  S S S
---------------------------------------------------|
----------4---------------5------------------------|
------4-------6-------6------------------------6---|
----6---6---4---4---6---6--------------------6---6-|
------------------4--------------------------------|
--4------------------------------------------------|
                                            ku i-


  S    S S S S S S S S                                          S S S S S S S
------------------------------------------------------------------------------|
---------0---2----------------------------------------------------0---2-------|
-----------------2--------------------------------------------------------2---|
-------2---2---2---2--------------------------------------------2---2---2---2-|
--0------------------2--------------------------------------------------------|
------------------------------------------------------------------------------|
   ngin                                                bernafas         lega


    ^   >   >   > > >     >   >
  S S S S S S S S S S S S S   S S S
----------0-------------0---------0-|
------0-------0-------0---------0---|
----1---1---1---1---2---------4-----|
------------------4-------6---------|
------------------------------------|
--0---------------------------------|
                           da-


  S                                                  S S S S S S S S S S S S S
--------------------------------------------------------------------------------|
-------------------------------------------------------0---2-----------2---4----|
-------------------------------------------------------------2---2-----------4--|
-----------------------------------------------------2---2-----2-----4---4------|
--0----------------------------------------------------------------0------------|
--------------------------------------------------------------------------------|
                                          lam                anganku      aku


  S S S      S S S S S S S E  E  E     Q.                      E  H
------------------------------------|--4--------------------------4--------|
---------------4--------------7--6--|--2--------------------------2--------|
------5------------5-------4--------|--3--------------------------3--------|
----6--------6---4---4---6----------|--4--------------------------4--------|
-----------------------4------------|--------------------------------------|
--4---------------------------------|--------------------------------------|
        berada                di      satu                   persimpangan


  F#7sus4
  >                                  ^
  E                          Q    E  H           E        E  E  E  E  E  Q
----------------------------------------------|-----------4--4--5--5--4--4----|
--5--------------------------4-------5--------|-------------------------------|
--4--------------------------4-------4--------|-----------4--4--5--5--4--4----|
-------------------------------------4--------|-------------------------------|
-------------------------------------2--------|-------------------------------|
--2--------------------------2----------------|--0----------------------------|
  jalan                  yang     sulit   ku-      pilih...

              ^                         ^
  E  E  E  E  E  E  Q       E  E  E  E  E  E  Q
-----2--2--4--4--2--2----|-----0--0--2--2--0--0----|
--------------------4----|-------------------------|
-----3--3-----2-----2----|-----1--1--2-------------|
-------------------------|-------------------------|
--4-----------3----------|--2-----------1----------|
-------------------------|-------------------------|


     D#/5+
  E  E     E  E  E  E  E  E     E  E  E  E  E  E  E  E
--------------0--0-----------|--------0-----------0-----|
-----4-----4--------4--------|-----0-----------0--------|
-----4-----4-----------4--2--|--1--------1--2--------2--|
-----------------------------|--------------------------|
--2--------------------------|--------------------------|
-----------------------------|--0-----------2-----------|

  E  E  E  E  E  E  Q       E                         E  E  E  E  E  Q
--------0--------0-------|--4-------------------------2--0--------2-------|
-----0--------------0----|----------------------------------0--------4----|
--1--------1--2-----1----|--4-------------------------2--1-----2----------|
--------------4----------|------------------------------------------------|
-------------------------|-------------------------------------0-----2----|
--0----------------------|--0---------------------------------------------|
                                          Kupeluk         semua indah


  E  E       E  E  E  E  Q       E                         E  Q    Q    Q
-------------0--------0-------|----------------------------------------------|
----------------0-------------|----------------------------------------------|
-----1-------------2-----1----|----------------------------------------------|
-------------------4-----2----|----------------------------------------------|
------------------------------|----------------------------------------------|
--0---------------------------|----------------------------------------------|
          hidupku                             Hikmah    yang     kurasa


                                 ^
  E                     E  E  E  H
---------------------------4-----4--------|
---------------------------4-----5--------|
------------------------6-----6--5--------|
---------------------------------6--------|
--6---------------------------------------|
------------------------------------------|
                sangat       tulus...


                                         ^
  E                       E  E  E  E  E  Q
----------------------------------------------|
-----------------------------5-----------5----|
-----------------------------6-----------5----|
--------------------------6-----6-----6-------|
--4--------------------------------4----------|
----------------------------------------------|
   Ada dan                tiada cinta...


  E                                        E  E  E  E  E  Q
----------------------------------------------------------4----|
----------------------------------------------5-----------2----|
----------------------------------------------4--------3-------|
-------------------------------------------6-----6--4----------|
--4------------------------------------------------------------|
---------------------------------------------------------------|
                bagiku                      tak mengapa...  na-


  E          E  E  E  E  E  E                  E
--------------------------------------------------|
----------------2-----2-----2---------------------|
----------------2-----2-----2---------------------|
-------------4-----4-----4---------------------4--|
--------------------------------------------------|
--2-----------------------------------------------|
    mun     ada...                    yang    hilang


        >
  E  E  E  E  E             E  E  E     E        E  E  E  E  E  E  E
-------------------------------------|--------------0-----------0-----|
--------5-----4----------------4-----|-----------------0-----------0--|
--------4-----4----------------4-----|-----------1-----------2--------|
-----4-----4----------------4-----4--|--------------------4-----------|
--2----------------------------------|--------------------------------|
-------------------------------------|--0-----------------------------|
                     separuh   hi-         dupku...


  E  E  E  E  E  E  Q
--------0--------0----------|
-----0--------------0-------|
--1--------1--2-------------|
----------------------------|
----------------------------|
----------------------------|
                      pe-


  S                             S S S S S S S S S S S S S S S
----------------------------------------------------------------------|
----------------------------------0---2-----------2---4---------------|
----------------------------------------2---2-----------4---4---------|
--------------------------------2---2-----2-----4---4-----4-----------|
--0-------------------------------------------0-----------------------|
----------------------------------------------------------------------|
           jam                    kan  mata                bila...


  S S S S S S S S S S S S S         S S S
------------------------------------------|
----------4-----------4---5---------------|
------4-------4-----------------------6---|
----6---6---6---6---6---6-----------6---6-|
------------------4-----------------------|
--4---------------------------------------|
                            ku    i-


  S                                              S S S S S S S S S S S S S
-------------------------------------------------------------------7---7--------|
---------------------------------------------------5---5-----------7---7--------|
---------------------------------------------------------6---6-----------8----8-|
-------------------------------------------------7---7-----7-----9---9------9---|
--------------------------------------------------------------------------------|
--5------------------------------------------------------------7----------------|
                  ngin                                bernafas             lega


  E  S S S S S S S S S S S S S   S
---------0-------------0---------0-|
-----0-----0---------0-------0-----|
-------1-----1-----2-------4-------|
---------------2-4-------6---------|
-----------------------------------|
--0--------------------------------|
                            da-


  S   S S S S S S S         S S S S S S S   S
----------------------------------------------|
--------0---2-------------------2---4---------|
--------------2---2-------------------4-----4-|
------2---2-----2-------------4---4-----4-----|
--0-------------------------0-----------------|
----------------------------------------------|
     lam               anganku          aku


  S S S S      S S S S S S E  E  E     Q.     E            H
------------------------------------|--4-------------------4--------|
---------------4--------------7--6--|--2-------------------2--------|
------5------------5-------4--------|--3-------------------3--------|
----6---6--------4---4---6----------|--4-------------------4--------|
-----------------------4------------|-------------------------------|
--4---------------------------------|-------------------------------|
            berada              di    satu           persimpangan


  >                                ^
  E                        Q    E  H           E        E  E  E  E  E  Q
--------------------------------------------|-----------4--4--5--5--4--4----|
--5------------------------4-------5--------|-------------------------------|
--4------------------------4-------4--------|-----------4--4--6--6--4--4----|
-----------------------------------4--------|-------------------------------|
-----------------------------------2--------|-------------------------------|
--2------------------------2----------------|--0----------------------------|
  jalan                yang      sulit  ku-         pilih...

                                     C6
                                        >  ^  ^          ^  ^  ^  ^  ^  ^
  E  E  E  E  E  E  Q       E  E  E  E  E  E  Q       E  E  E  E  E  E  Q
-----2--2--4--4--2--2----|-----4--4--5--5--4--4----|-----2--2--4--4--2--2----|
-------------------------|-------------------------|-------------------------|
-----2--2--4--4--2--2----|-----4--4--5--5--4--4----|-----2--2--4--4--2--2----|
-------------------------|-------------------------|-------------------------|
-------------------------|-------------------------|-------------------------|
--0----------------------|--0----------------------|--0----------------------|


  G#m/5+
  ^
  W
--0----------------||
--0----------------||
--1----------------||
--2----------------||
--2----------------||
--0----------------||


Duration Legend
---------------
W - whole
H - half
Q - quarter
E - 8th
S - 16th
T - 32nd
X - 64th
. - note dotted
|-n-|  - n-tuplets


Tablature Legend
----------------
L - tied note
x - dead note
g - grace note
(n) - ghost note
> - accentuded note
NH - natural harmonic
AH - artificial harmonic
TH - tapped harmonic
SH - semi harmonic
PH - pitch harmonic
h - hammer on
p - pull off
b - bend
br - bendRelease
pb - preBend
pbr - preBendRelease
brb - bendReleaseBend
\n/ - tremolo bar dip
\n - tremolo bar dive
-/n - tremolo bar Release up
/n\ - tremolo bar inverted dip
/n - tremolo bar return
-\n - tremolo bar Release down
S - shift slide
s - legato slide
/ -  slide into from below or out of upwards
\ -  slide into from above or out of downwards
~ - vibrato
W - wide vibrato
tr - trill
TP - tremolo picking
T - tapping
S - slap
P - pop
< - fade in
^ - brush up
v - brush down
Tap to rate this tab
# A B C D E F G H I J K L M N O P Q R S T U V W X Y Z